  0
SECTION
  2
HEADER
  9
$ACADVER
  1
AC1014
  9
$ACADMAINTVER
 70
     9
  9
$DWGCODEPAGE
  3
ANSI_932
  9
$INSBASE
 10
0.0
 20
0.0
 30
0.0
  9
$EXTMIN
 10
44.00000000000004
 20
65.0
 30
0.0
  9
$EXTMAX
 10
550.5809849521204
 20
758.0
 30
0.0
  9
$LIMMIN
 10
0.0
 20
0.0
  9
$LIMMAX
 10
594.0
 20
841.0
  9
$ORTHOMODE
 70
     0
  9
$REGENMODE
 70
     1
  9
$FILLMODE
 70
     1
  9
$QTEXTMODE
 70
     0
  9
$MIRRTEXT
 70
     1
  9
$DRAGMODE
 70
     2
  9
$LTSCALE
 40
1.0
  9
$OSMODE
 70
    37
  9
$ATTMODE
 70
     1
  9
$TEXTSIZE
 40
2.5
  9
$TRACEWID
 40
1.0
  9
$TEXTSTYLE
  7
STANDARD
  9
$CLAYER
  8
LAY-1
  9
$CELTYPE
  6
BYLAYER
  9
$CECOLOR
 62
   256
  9
$CELTSCALE
 40
1.0
  9
$DELOBJ
 70
     1
  9
$DISPSILH
 70
     0
  9
$DIMSCALE
 40
1.0
  9
$DIMASZ
 40
2.5
  9
$DIMEXO
 40
0.625
  9
$DIMDLI
 40
3.75
  9
$DIMRND
 40
0.0
  9
$DIMDLE
 40
0.0
  9
$DIMEXE
 40
1.25
  9
$DIMTP
 40
0.0
  9
$DIMTM
 40
0.0
  9
$DIMTXT
 40
2.5
  9
$DIMCEN
 40
2.5
  9
$DIMTSZ
 40
0.0
  9
$DIMTOL
 70
     0
  9
$DIMLIM
 70
     0
  9
$DIMTIH
 70
     0
  9
$DIMTOH
 70
     0
  9
$DIMSE1
 70
     0
  9
$DIMSE2
 70
     0
  9
$DIMTAD
 70
     1
  9
$DIMZIN
 70
     8
  9
$DIMBLK
  1

  9
$DIMASO
 70
     1
  9
$DIMSHO
 70
     1
  9
$DIMPOST
  1

  9
$DIMAPOST
  1

  9
$DIMALT
 70
     0
  9
$DIMALTD
 70
     3
  9
$DIMALTF
 40
0.03937007874016
  9
$DIMLFAC
 40
1.0
  9
$DIMTOFL
 70
     1
  9
$DIMTVP
 40
0.0
  9
$DIMTIX
 70
     0
  9
$DIMSOXD
 70
     0
  9
$DIMSAH
 70
     0
  9
$DIMBLK1
  1

  9
$DIMBLK2
  1

  9
$DIMSTYLE
  2
ISO-25
  9
$DIMCLRD
 70
     0
  9
$DIMCLRE
 70
     0
  9
$DIMCLRT
 70
     0
  9
$DIMTFAC
 40
1.0
  9
$DIMGAP
 40
0.625
  9
$DIMJUST
 70
     0
  9
$DIMSD1
 70
     0
  9
$DIMSD2
 70
     0
  9
$DIMTOLJ
 70
     0
  9
$DIMTZIN
 70
     8
  9
$DIMALTZ
 70
     0
  9
$DIMALTTZ
 70
     0
  9
$DIMFIT
 70
     3
  9
$DIMUPT
 70
     0
  9
$DIMUNIT
 70
     2
  9
$DIMDEC
 70
     2
  9
$DIMTDEC
 70
     2
  9
$DIMALTU
 70
     2
  9
$DIMALTTD
 70
     3
  9
$DIMTXSTY
  7
STANDARD
  9
$DIMAUNIT
 70
     0
  9
$LUNITS
 70
     2
  9
$LUPREC
 70
     4
  9
$SKETCHINC
 40
1.0
  9
$FILLETRAD
 40
10.0
  9
$AUNITS
 70
     0
  9
$AUPREC
 70
     0
  9
$MENU
  1
.
  9
$ELEVATION
 40
0.0
  9
$PELEVATION
 40
0.0
  9
$THICKNESS
 40
0.0
  9
$LIMCHECK
 70
     0
  9
$CHAMFERA
 40
0.0
  9
$CHAMFERB
 40
0.0
  9
$CHAMFERC
 40
0.0
  9
$CHAMFERD
 40
0.0
  9
$SKPOLY
 70
     0
  9
$TDCREATE
 40
2458310.484989687
  9
$TDUPDATE
 40
2458310.484989919
  9
$TDINDWG
 40
0.0000000116
  9
$TDUSRTIMER
 40
0.0000000116
  9
$USRTIMER
 70
     1
  9
$ANGBASE
 50
0.0
  9
$ANGDIR
 70
     0
  9
$PDMODE
 70
     0
  9
$PDSIZE
 40
0.0
  9
$PLINEWID
 40
0.0
  9
$COORDS
 70
     1
  9
$SPLFRAME
 70
     0
  9
$SPLINETYPE
 70
     6
  9
$SPLINESEGS
 70
     8
  9
$ATTDIA
 70
     0
  9
$ATTREQ
 70
     1
  9
$HANDLING
 70
     1
  9
$HANDSEED
  5
213
  9
$SURFTAB1
 70
     6
  9
$SURFTAB2
 70
     6
  9
$SURFTYPE
 70
     6
  9
$SURFU
 70
     6
  9
$SURFV
 70
     6
  9
$UCSNAME
  2

  9
$UCSORG
 10
0.0
 20
0.0
 30
0.0
  9
$UCSXDIR
 10
1.0
 20
0.0
 30
0.0
  9
$UCSYDIR
 10
0.0
 20
1.0
 30
0.0
  9
$PUCSNAME
  2

  9
$PUCSORG
 10
0.0
 20
0.0
 30
0.0
  9
$PUCSXDIR
 10
1.0
 20
0.0
 30
0.0
  9
$PUCSYDIR
 10
0.0
 20
1.0
 30
0.0
  9
$USERI1
 70
     0
  9
$USERI2
 70
     0
  9
$USERI3
 70
     0
  9
$USERI4
 70
     0
  9
$USERI5
 70
     0
  9
$USERR1
 40
0.0
  9
$USERR2
 40
0.0
  9
$USERR3
 40
0.0
  9
$USERR4
 40
0.0
  9
$USERR5
 40
0.0
  9
$WORLDVIEW
 70
     1
  9
$SHADEDGE
 70
     3
  9
$SHADEDIF
 70
    70
  9
$TILEMODE
 70
     1
  9
$MAXACTVP
 70
    64
  9
$PINSBASE
 10
0.0
 20
0.0
 30
0.0
  9
$PLIMCHECK
 70
     0
  9
$PEXTMIN
 10
1.000000000000000E+20
 20
1.000000000000000E+20
 30
1.000000000000000E+20
  9
$PEXTMAX
 10
-1.000000000000000E+20
 20
-1.000000000000000E+20
 30
-1.000000000000000E+20
  9
$PLIMMIN
 10
0.0
 20
0.0
  9
$PLIMMAX
 10
420.0
 20
297.0
  9
$UNITMODE
 70
     0
  9
$VISRETAIN
 70
     1
  9
$PLINEGEN
 70
     0
  9
$PSLTSCALE
 70
     1
  9
$TREEDEPTH
 70
  3020
  9
$PICKSTYLE
 70
     1
  9
$CMLSTYLE
  2
STANDARD
  9
$CMLJUST
 70
     0
  9
$CMLSCALE
 40
20.0
  9
$PROXYGRAPHICS
 70
     1
  9
$MEASUREMENT
 70
     1
  0
ENDSEC
  0
SECTION
  2
CLASSES
  0
CLASS
  1
ACDBDICTIONARYWDFLT
  2
AcDbDictionaryWithDefault
  3
ObjectDBX Classes
 90
        0
280
     0
281
     0
  0
CLASS
  1
VISUALSTYLE
  2
AcDbVisualStyle
  3
ObjectDBX Classes
 90
     4095
280
     0
281
     0
  0
CLASS
  1
MATERIAL
  2
AcDbMaterial
  3
ObjectDBX Classes
 90
     1153
280
     0
281
     0
  0
CLASS
  1
SCALE
  2
AcDbScale
  3
ObjectDBX Classes
 90
     1153
280
     0
281
     0
  0
CLASS
  1
TABLESTYLE
  2
AcDbTableStyle
  3
ObjectDBX Classes
 90
     4095
280
     0
281
     0
  0
CLASS
  1
MLEADERSTYLE
  2
AcDbMLeaderStyle
  3
ACDB_MLEADERSTYLE_CLASS
 90
     4095
280
     0
281
     0
  0
CLASS
  1
SUN
  2
AcDbSun
  3
SCENEOE
 90
     1153
280
     0
281
     0
  0
CLASS
  1
DICTIONARYVAR
  2
AcDbDictionaryVar
  3
ObjectDBX Classes
 90
        0
280
     0
281
     0
  0
CLASS
  1
XRECORD
  2
AcDbXrecord
  3
ObjectDBX Classes
 90
        0
280
     0
281
     0
  0
CLASS
  1
LWPOLYLINE
  2
AcDbPolyline
  3
ObjectDBX Classes
 90
        0
280
     0
281
     1
  0
CLASS
  1
HATCH
  2
AcDbHatch
  3
ObjectDBX Classes
 90
        0
280
     0
281
     1
  0
CLASS
  1
ACDBPLACEHOLDER
  2
AcDbPlaceHolder
  3
ObjectDBX Classes
 90
        0
280
     0
281
     0
  0
CLASS
  1
LAYOUT
  2
AcDbLayout
  3
ObjectDBX Classes
 90
        0
280
     0
281
     0
  0
ENDSEC
  0
SECTION
  2
TABLES
  0
TABLE
  2
VPORT
  5
8
102
{ACAD_XDICTIONARY
360
208
102
}
330
0
100
AcDbSymbolTable
 70
     1
  0
VPORT
  5
29
330
8
100
AcDbSymbolTableRecord
100
AcDbViewportTableRecord
  2
*ACTIVE
 70
     0
 10
0.0
 20
0.0
 11
1.0
 21
1.0
 12
298.1
 22
411.5
 13
0.0
 23
0.0
 14
10.0
 24
10.0
 15
10.0
 25
10.0
 16
0.0
 26
0.0
 36
1.0
 17
0.0
 27
0.0
 37
0.0
 40
693.0
 41
0.7333333333333333
 42
50.0
 43
0.0
 44
0.0
 50
0.0
 51
0.0
 71
     0
 72
  1000
 73
     1
 74
     3
 75
     0
 76
     0
 77
     0
 78
     0
  0
ENDTAB
  0
TABLE
  2
LTYPE
  5
5
330
0
100
AcDbSymbolTable
 70
    12
  0
LTYPE
  5
14
330
5
100
AcDbSymbolTableRecord
100
AcDbLinetypeTableRecord
  2
BYBLOCK
 70
     0
  3

 72
    65
 73
     0
 40
0.0
  0
LTYPE
  5
15
330
5
100
AcDbSymbolTableRecord
100
AcDbLinetypeTableRecord
  2
BYLAYER
 70
     0
  3

 72
    65
 73
     0
 40
0.0
  0
LTYPE
  5
16
330
5
100
AcDbSymbolTableRecord
100
AcDbLinetypeTableRecord
  2
CONTINUOUS
 70
     0
  3
Solid line
 72
    65
 73
     0
 40
0.0
  0
LTYPE
  5
6E
330
5
100
AcDbSymbolTableRecord
100
AcDbLinetypeTableRecord
  2
EXLTYPE0
 70
     0
  3
一点鎖線2
 72
    65
 73
     4
 40
8.0
 49
5.0
 74
     0
 49
-1.0
 74
     0
 49
1.0
 74
     0
 49
-1.0
 74
     0
  0
LTYPE
  5
6F
330
5
100
AcDbSymbolTableRecord
100
AcDbLinetypeTableRecord
  2
EXLTYPE1
 70
     0
  3
点線
 72
    65
 73
     2
 40
2.0
 49
1.0
 74
     0
 49
-1.0
 74
     0
  0
LTYPE
  5
70
330
5
100
AcDbSymbolTableRecord
100
AcDbLinetypeTableRecord
  2
EXLTYPE2
 70
     0
  3
一点鎖線
 72
    65
 73
     4
 40
13.0
 49
10.0
 74
     0
 49
-1.0
 74
     0
 49
1.0
 74
     0
 49
-1.0
 74
     0
  0
LTYPE
  5
71
330
5
100
AcDbSymbolTableRecord
100
AcDbLinetypeTableRecord
  2
EXLTYPE3
 70
     0
  3
二点鎖線
 72
    65
 73
     6
 40
15.0
 49
10.0
 74
     0
 49
-1.0
 74
     0
 49
1.0
 74
     0
 49
-1.0
 74
     0
 49
1.0
 74
     0
 49
-1.0
 74
     0
  0
LTYPE
  5
72
330
5
100
AcDbSymbolTableRecord
100
AcDbLinetypeTableRecord
  2
EXLTYPE4
 70
     0
  3
破線
 72
    65
 73
     2
 40
3.0
 49
2.0
 74
     0
 49
-1.0
 74
     0
  0
LTYPE
  5
73
330
5
100
AcDbSymbolTableRecord
100
AcDbLinetypeTableRecord
  2
EXLTYPE5
 70
     0
  3
点線2
 72
    65
 73
     2
 40
1.0
 49
0.5
 74
     0
 49
-0.5
 74
     0
  0
LTYPE
  5
74
330
5
100
AcDbSymbolTableRecord
100
AcDbLinetypeTableRecord
  2
EXLTYPE6
 70
     0
  3
二点鎖線2
 72
    65
 73
     6
 40
7.5
 49
5.0
 74
     0
 49
-0.5
 74
     0
 49
0.5
 74
     0
 49
-0.5
 74
     0
 49
0.5
 74
     0
 49
-0.5
 74
     0
  0
LTYPE
  5
75
330
5
100
AcDbSymbolTableRecord
100
AcDbLinetypeTableRecord
  2
EXLTYPE7
 70
     0
  3
三点鎖線
 72
    65
 73
     8
 40
37.0
 49
30.0
 74
     0
 49
-1.0
 74
     0
 49
1.0
 74
     0
 49
-1.0
 74
     0
 49
1.0
 74
     0
 49
-1.0
 74
     0
 49
1.0
 74
     0
 49
-1.0
 74
     0
  0
LTYPE
  5
76
330
5
100
AcDbSymbolTableRecord
100
AcDbLinetypeTableRecord
  2
EXLTYPE8
 70
     0
  3
一点鎖線3
 72
    65
 73
     4
 40
33.0
 49
30.0
 74
     0
 49
-1.0
 74
     0
 49
1.0
 74
     0
 49
-1.0
 74
     0
  0
LTYPE
  5
77
330
5
100
AcDbSymbolTableRecord
100
AcDbLinetypeTableRecord
  2
EXLTYPE9
 70
     0
  3
二点鎖線3
 72
    65
 73
     6
 40
4.5
 49
2.0
 74
     0
 49
-0.5
 74
     0
 49
0.5
 74
     0
 49
-0.5
 74
     0
 49
0.5
 74
     0
 49
-0.5
 74
     0
  0
LTYPE
  5
78
330
5
100
AcDbSymbolTableRecord
100
AcDbLinetypeTableRecord
  2
EXLTYPE10
 70
     0
  3
四点鎖線
 72
    65
 73
    10
 40
39.0
 49
30.0
 74
     0
 49
-1.0
 74
     0
 49
1.0
 74
     0
 49
-1.0
 74
     0
 49
1.0
 74
     0
 49
-1.0
 74
     0
 49
1.0
 74
     0
 49
-1.0
 74
     0
 49
1.0
 74
     0
 49
-1.0
 74
     0
  0
ENDTAB
  0
TABLE
  2
LAYER
  5
2
330
0
100
AcDbSymbolTable
 70
     2
  0
LAYER
  5
10
330
2
100
AcDbSymbolTableRecord
100
AcDbLayerTableRecord
  2
0
 70
     0
 62
     7
  6
CONTINUOUS
  0
LAYER
  5
7B
330
2
100
AcDbSymbolTableRecord
100
AcDbLayerTableRecord
  2
LAY-1
 70
     0
 62
     7
  6
CONTINUOUS
  0
ENDTAB
  0
TABLE
  2
STYLE
  5
3
330
0
100
AcDbSymbolTable
 70
     4
  0
STYLE
  5
11
330
3
100
AcDbSymbolTableRecord
100
AcDbTextStyleTableRecord
  2
STANDARD
 70
     0
 40
0.0
 41
1.0
 50
0.0
 71
     0
 42
2.5
  3
monotxt
  4
extfont
  0
STYLE
  5
79
330
3
100
AcDbSymbolTableRecord
100
AcDbTextStyleTableRecord
  2
EXCADSTD
 70
     0
 40
0.0
 41
1.0
 50
0.0
 71
     0
 42
2.5
  3
monotxt
  4
extfont
  0
STYLE
  5
7A
330
3
100
AcDbSymbolTableRecord
100
AcDbTextStyleTableRecord
  2
EXCADVERT
 70
     4
 40
0.0
 41
1.0
 50
0.0
 71
     0
 42
2.5
  3
monotxt
  4
extfont
  0
STYLE
  5
E6
330
3
100
AcDbSymbolTableRecord
100
AcDbTextStyleTableRecord
  2
EXCADTTF1
 70
     0
 40
0.0
 41
1.0
 50
0.0
 71
     0
 42
2.5
  3
msmincho.ttc
  4

1001
ACAD
1000
MS Mincho
1071
    32785
  0
ENDTAB
  0
TABLE
  2
VIEW
  5
6
330
0
100
AcDbSymbolTable
 70
     0
  0
ENDTAB
  0
TABLE
  2
UCS
  5
7
330
0
100
AcDbSymbolTable
 70
     0
  0
ENDTAB
  0
TABLE
  2
APPID
  5
9
330
0
100
AcDbSymbolTable
 70
     2
  0
APPID
  5
12
330
9
100
AcDbSymbolTableRecord
100
AcDbRegAppTableRecord
  2
ACAD
 70
     0
  0
APPID
  5
212
330
9
100
AcDbSymbolTableRecord
100
AcDbRegAppTableRecord
  2
ACAD_MLEADERVER
 70
     0
  0
ENDTAB
  0
TABLE
  2
DIMSTYLE
  5
A
330
0
100
AcDbSymbolTable
 70
     1
  0
DIMSTYLE
105
27
330
A
100
AcDbSymbolTableRecord
100
AcDbDimStyleTableRecord
  2
ISO-25
 70
     0
  3

  4

  5

  6

  7

 40
1.0
 41
2.5
 42
0.625
 43
3.75
 44
1.25
 45
0.0
 46
0.0
 47
0.0
 48
0.0
140
2.5
141
2.5
142
0.0
143
0.03937007874016
144
1.0
145
0.0
146
1.0
147
0.625
 71
     0
 72
     0
 73
     0
 74
     0
 75
     0
 76
     0
 77
     1
 78
     8
170
     0
171
     3
172
     1
173
     0
174
     0
175
     0
176
     0
177
     0
178
     0
270
     2
271
     2
272
     2
273
     2
274
     3
340
11
275
     0
280
     0
281
     0
282
     0
283
     0
284
     8
285
     0
286
     0
287
     5
288
     0
  0
ENDTAB
  0
TABLE
  2
BLOCK_RECORD
  5
1
330
0
100
AcDbSymbolTable
 70
    16
  0
BLOCK_RECORD
  5
1F
330
1
100
AcDbSymbolTableRecord
100
AcDbBlockTableRecord
  2
*MODEL_SPACE
  0
BLOCK_RECORD
  5
1B
330
1
100
AcDbSymbolTableRecord
100
AcDbBlockTableRecord
  2
*PAPER_SPACE
  0
BLOCK_RECORD
  5
7C
330
1
100
AcDbSymbolTableRecord
100
AcDbBlockTableRecord
  2
EX_NORM
  0
BLOCK_RECORD
  5
7F
330
1
100
AcDbSymbolTableRecord
100
AcDbBlockTableRecord
  2
EX_BNORM
  0
BLOCK_RECORD
  5
82
330
1
100
AcDbSymbolTableRecord
100
AcDbBlockTableRecord
  2
EX_BCIR
  0
BLOCK_RECORD
  5
85
330
1
100
AcDbSymbolTableRecord
100
AcDbBlockTableRecord
  2
EX_RCIVIL
  0
BLOCK_RECORD
  5
88
330
1
100
AcDbSymbolTableRecord
100
AcDbBlockTableRecord
  2
EX_SLANT
  0
BLOCK_RECORD
  5
8B
330
1
100
AcDbSymbolTableRecord
100
AcDbBlockTableRecord
  2
EX_NONE
  0
BLOCK_RECORD
  5
8E
330
1
100
AcDbSymbolTableRecord
100
AcDbBlockTableRecord
  2
EX_CIVIL
  0
BLOCK_RECORD
  5
91
330
1
100
AcDbSymbolTableRecord
100
AcDbBlockTableRecord
  2
EX_WCIR
  0
BLOCK_RECORD
  5
94
330
1
100
AcDbSymbolTableRecord
100
AcDbBlockTableRecord
  2
EX_WCIR2
  0
BLOCK_RECORD
  5
97
330
1
100
AcDbSymbolTableRecord
100
AcDbBlockTableRecord
  2
EX_WNORM
  0
BLOCK_RECORD
  5
9A
330
1
100
AcDbSymbolTableRecord
100
AcDbBlockTableRecord
  2
EX_NNORM
  0
BLOCK_RECORD
  5
9D
330
1
100
AcDbSymbolTableRecord
100
AcDbBlockTableRecord
  2
EX_BBOX
  0
BLOCK_RECORD
  5
A0
330
1
100
AcDbSymbolTableRecord
100
AcDbBlockTableRecord
  2
EX_WBOX
  0
BLOCK_RECORD
  5
A3
330
1
100
AcDbSymbolTableRecord
100
AcDbBlockTableRecord
  2
EX_INTEGRAL
  0
BLOCK_RECORD
  5
A6
330
1
100
AcDbSymbolTableRecord
100
AcDbBlockTableRecord
  2
HN16
  0
ENDTAB
  0
ENDSEC
  0
SECTION
  2
BLOCKS
  0
BLOCK
  5
20
330
1F
100
AcDbEntity
  8
0
100
AcDbBlockBegin
  2
*MODEL_SPACE
 70
     0
 10
0.0
 20
0.0
 30
0.0
  3
*MODEL_SPACE
  1

  0
ENDBLK
  5
21
330
1F
100
AcDbEntity
  8
0
100
AcDbBlockEnd
  0
BLOCK
  5
1C
330
1B
100
AcDbEntity
 67
     1
  8
0
100
AcDbBlockBegin
  2
*PAPER_SPACE
 70
     0
 10
0.0
 20
0.0
 30
0.0
  3
*PAPER_SPACE
  1

  0
ENDBLK
  5
1D
330
1B
100
AcDbEntity
 67
     1
  8
0
100
AcDbBlockEnd
  0
BLOCK
  5
7D
330
7C
100
AcDbEntity
  8
0
100
AcDbBlockBegin
  2
EX_NORM
 70
     0
 10
0.0
 20
0.0
 30
0.0
  3
EX_NORM
  1

  0
LINE
  5
A9
330
7C
100
AcDbEntity
  8
0
  6
CONTINUOUS
 62
     0
100
AcDbLine
 10
0.0
 20
0.0
 30
0.0
 11
-1.0
 21
0.0
 31
0.0
  0
LINE
  5
AA
330
7C
100
AcDbEntity
  8
0
  6
CONTINUOUS
 62
     0
100
AcDbLine
 10
0.0
 20
0.0
 30
0.0
 11
-1.0
 21
0.166666667
 31
0.0
  0
LINE
  5
AB
330
7C
100
AcDbEntity
  8
0
  6
CONTINUOUS
 62
     0
100
AcDbLine
 10
0.0
 20
0.0
 30
0.0
 11
-1.0
 21
-0.166666667
 31
0.0
  0
ENDBLK
  5
7E
330
7C
100
AcDbEntity
  8
0
100
AcDbBlockEnd
  0
BLOCK
  5
80
330
7F
100
AcDbEntity
  8
0
100
AcDbBlockBegin
  2
EX_BNORM
 70
     0
 10
0.0
 20
0.0
 30
0.0
  3
EX_BNORM
  1

  0
LINE
  5
AC
330
7F
100
AcDbEntity
  8
0
  6
CONTINUOUS
 62
     0
100
AcDbLine
 10
0.0
 20
0.0
 30
0.0
 11
-1.0
 21
0.0
 31
0.0
  0
LINE
  5
AD
330
7F
100
AcDbEntity
  8
0
  6
CONTINUOUS
 62
     0
100
AcDbLine
 10
0.0
 20
0.0
 30
0.0
 11
-1.0
 21
0.166666667
 31
0.0
  0
LINE
  5
AE
330
7F
100
AcDbEntity
  8
0
  6
CONTINUOUS
 62
     0
100
AcDbLine
 10
0.0
 20
0.0
 30
0.0
 11
-1.0
 21
-0.166666667
 31
0.0
  0
LINE
  5
AF
330
7F
100
AcDbEntity
  8
0
  6
CONTINUOUS
 62
     0
100
AcDbLine
 10
0.0
 20
0.0
 30
0.0
 11
-1.0
 21
0.083333333
 31
0.0
  0
LINE
  5
B0
330
7F
100
AcDbEntity
  8
0
  6
CONTINUOUS
 62
     0
100
AcDbLine
 10
0.0
 20
0.0
 30
0.0
 11
-1.0
 21
-0.083333333
 31
0.0
  0
LINE
  5
B1
330
7F
100
AcDbEntity
  8
0
  6
CONTINUOUS
 62
     0
100
AcDbLine
 10
-1.0
 20
0.166666667
 30
0.0
 11
-1.0
 21
-0.166666667
 31
0.0
  0
ENDBLK
  5
81
330
7F
100
AcDbEntity
  8
0
100
AcDbBlockEnd
  0
BLOCK
  5
83
330
82
100
AcDbEntity
  8
0
100
AcDbBlockBegin
  2
EX_BCIR
 70
     0
 10
0.0
 20
0.0
 30
0.0
  3
EX_BCIR
  1

  0
LINE
  5
B2
330
82
100
AcDbEntity
  8
0
  6
CONTINUOUS
 62
     0
100
AcDbLine
 10
0.0
 20
0.0
 30
0.0
 11
-1.0
 21
0.0
 31
0.0
  0
CIRCLE
  5
B3
330
82
100
AcDbEntity
  8
0
  6
CONTINUOUS
 62
     0
100
AcDbCircle
 10
0.0
 20
0.0
 30
0.0
 40
0.5
  0
CIRCLE
  5
B4
330
82
100
AcDbEntity
  8
0
  6
CONTINUOUS
 62
     0
100
AcDbCircle
 10
0.0
 20
0.0
 30
0.0
 40
0.25
  0
ENDBLK
  5
84
330
82
100
AcDbEntity
  8
0
100
AcDbBlockEnd
  0
BLOCK
  5
86
330
85
100
AcDbEntity
  8
0
100
AcDbBlockBegin
  2
EX_RCIVIL
 70
     0
 10
0.0
 20
0.0
 30
0.0
  3
EX_RCIVIL
  1

  0
LINE
  5
B5
330
85
100
AcDbEntity
  8
0
  6
CONTINUOUS
 62
     0
100
AcDbLine
 10
0.0
 20
0.0
 30
0.0
 11
-1.0
 21
0.0
 31
0.0
  0
LINE
  5
B6
330
85
100
AcDbEntity
  8
0
  6
CONTINUOUS
 62
     0
100
AcDbLine
 10
-1.0
 20
-0.25
 30
0.0
 11
0.0
 21
-0.25
 31
0.0
  0
LINE
  5
B7
330
85
100
AcDbEntity
  8
0
  6
CONTINUOUS
 62
     0
100
AcDbLine
 10
-1.0
 20
-0.125
 30
0.0
 11
0.0
 21
-0.125
 31
0.0
  0
ENDBLK
  5
87
330
85
100
AcDbEntity
  8
0
100
AcDbBlockEnd
  0
BLOCK
  5
89
330
88
100
AcDbEntity
  8
0
100
AcDbBlockBegin
  2
EX_SLANT
 70
     0
 10
0.0
 20
0.0
 30
0.0
  3
EX_SLANT
  1

  0
LINE
  5
B8
330
88
100
AcDbEntity
  8
0
  6
CONTINUOUS
 62
     0
100
AcDbLine
 10
0.0
 20
0.0
 30
0.0
 11
-1.0
 21
0.0
 31
0.0
  0
LINE
  5
B9
330
88
100
AcDbEntity
  8
0
  6
CONTINUOUS
 62
     0
100
AcDbLine
 10
0.707106781
 20
0.707106781
 30
0.0
 11
-0.707106781
 21
-0.707106781
 31
0.0
  0
ENDBLK
  5
8A
330
88
100
AcDbEntity
  8
0
100
AcDbBlockEnd
  0
BLOCK
  5
8C
330
8B
100
AcDbEntity
  8
0
100
AcDbBlockBegin
  2
EX_NONE
 70
     0
 10
0.0
 20
0.0
 30
0.0
  3
EX_NONE
  1

  0
LINE
  5
BA
330
8B
100
AcDbEntity
  8
0
  6
CONTINUOUS
 62
     0
100
AcDbLine
 10
0.0
 20
0.0
 30
0.0
 11
-1.0
 21
0.0
 31
0.0
  0
ENDBLK
  5
8D
330
8B
100
AcDbEntity
  8
0
100
AcDbBlockEnd
  0
BLOCK
  5
8F
330
8E
100
AcDbEntity
  8
0
100
AcDbBlockBegin
  2
EX_CIVIL
 70
     0
 10
0.0
 20
0.0
 30
0.0
  3
EX_CIVIL
  1

  0
LINE
  5
BB
330
8E
100
AcDbEntity
  8
0
  6
CONTINUOUS
 62
     0
100
AcDbLine
 10
0.0
 20
0.0
 30
0.0
 11
-1.0
 21
0.0
 31
0.0
  0
LINE
  5
BC
330
8E
100
AcDbEntity
  8
0
  6
CONTINUOUS
 62
     0
100
AcDbLine
 10
-1.0
 20
0.25
 30
0.0
 11
0.0
 21
0.25
 31
0.0
  0
LINE
  5
BD
330
8E
100
AcDbEntity
  8
0
  6
CONTINUOUS
 62
     0
100
AcDbLine
 10
-1.0
 20
0.125
 30
0.0
 11
0.0
 21
0.125
 31
0.0
  0
ENDBLK
  5
90
330
8E
100
AcDbEntity
  8
0
100
AcDbBlockEnd
  0
BLOCK
  5
92
330
91
100
AcDbEntity
  8
0
100
AcDbBlockBegin
  2
EX_WCIR
 70
     0
 10
0.0
 20
0.0
 30
0.0
  3
EX_WCIR
  1

  0
LINE
  5
BE
330
91
100
AcDbEntity
  8
0
  6
CONTINUOUS
 62
     0
100
AcDbLine
 10
0.0
 20
0.0
 30
0.0
 11
-1.0
 21
0.0
 31
0.0
  0
CIRCLE
  5
BF
330
91
100
AcDbEntity
  8
0
  6
CONTINUOUS
 62
     0
100
AcDbCircle
 10
0.0
 20
0.0
 30
0.0
 40
0.5
  0
ENDBLK
  5
93
330
91
100
AcDbEntity
  8
0
100
AcDbBlockEnd
  0
BLOCK
  5
95
330
94
100
AcDbEntity
  8
0
100
AcDbBlockBegin
  2
EX_WCIR2
 70
     0
 10
0.0
 20
0.0
 30
0.0
  3
EX_WCIR2
  1

  0
LINE
  5
C0
330
94
100
AcDbEntity
  8
0
  6
CONTINUOUS
 62
     0
100
AcDbLine
 10
-0.5
 20
0.0
 30
0.0
 11
-1.0
 21
0.0
 31
0.0
  0
CIRCLE
  5
C1
330
94
100
AcDbEntity
  8
0
  6
CONTINUOUS
 62
     0
100
AcDbCircle
 10
0.0
 20
0.0
 30
0.0
 40
0.5
  0
ENDBLK
  5
96
330
94
100
AcDbEntity
  8
0
100
AcDbBlockEnd
  0
BLOCK
  5
98
330
97
100
AcDbEntity
  8
0
100
AcDbBlockBegin
  2
EX_WNORM
 70
     0
 10
0.0
 20
0.0
 30
0.0
  3
EX_WNORM
  1

  0
LINE
  5
C2
330
97
100
AcDbEntity
  8
0
  6
CONTINUOUS
 62
     0
100
AcDbLine
 10
-1.0
 20
0.0
 30
0.0
 11
-1.0
 21
0.0
 31
0.0
  0
LINE
  5
C3
330
97
100
AcDbEntity
  8
0
  6
CONTINUOUS
 62
     0
100
AcDbLine
 10
0.0
 20
0.0
 30
0.0
 11
-1.0
 21
0.166666667
 31
0.0
  0
LINE
  5
C4
330
97
100
AcDbEntity
  8
0
  6
CONTINUOUS
 62
     0
100
AcDbLine
 10
0.0
 20
0.0
 30
0.0
 11
-1.0
 21
-0.166666667
 31
0.0
  0
LINE
  5
C5
330
97
100
AcDbEntity
  8
0
  6
CONTINUOUS
 62
     0
100
AcDbLine
 10
-1.0
 20
0.166666667
 30
0.0
 11
-1.0
 21
-0.166666667
 31
0.0
  0
ENDBLK
  5
99
330
97
100
AcDbEntity
  8
0
100
AcDbBlockEnd
  0
BLOCK
  5
9B
330
9A
100
AcDbEntity
  8
0
100
AcDbBlockBegin
  2
EX_NNORM
 70
     0
 10
0.0
 20
0.0
 30
0.0
  3
EX_NNORM
  1

  0
LINE
  5
C6
330
9A
100
AcDbEntity
  8
0
  6
CONTINUOUS
 62
     0
100
AcDbLine
 10
0.0
 20
0.0
 30
0.0
 11
-1.0
 21
0.0
 31
0.0
  0
LINE
  5
C7
330
9A
100
AcDbEntity
  8
0
  6
CONTINUOUS
 62
     0
100
AcDbLine
 10
0.0
 20
0.0
 30
0.0
 11
-1.0
 21
0.166666667
 31
0.0
  0
LINE
  5
C8
330
9A
100
AcDbEntity
  8
0
  6
CONTINUOUS
 62
     0
100
AcDbLine
 10
0.0
 20
0.0
 30
0.0
 11
-1.0
 21
-0.166666667
 31
0.0
  0
LINE
  5
C9
330
9A
100
AcDbEntity
  8
0
  6
CONTINUOUS
 62
     0
100
AcDbLine
 10
-1.0
 20
0.166666667
 30
0.0
 11
-1.0
 21
-0.166666667
 31
0.0
  0
ENDBLK
  5
9C
330
9A
100
AcDbEntity
  8
0
100
AcDbBlockEnd
  0
BLOCK
  5
9E
330
9D
100
AcDbEntity
  8
0
100
AcDbBlockBegin
  2
EX_BBOX
 70
     0
 10
0.0
 20
0.0
 30
0.0
  3
EX_BBOX
  1

  0
LINE
  5
CA
330
9D
100
AcDbEntity
  8
0
  6
CONTINUOUS
 62
     0
100
AcDbLine
 10
0.0
 20
0.0
 30
0.0
 11
-1.0
 21
0.0
 31
0.0
  0
LINE
  5
CB
330
9D
100
AcDbEntity
  8
0
  6
CONTINUOUS
 62
     0
100
AcDbLine
 10
-0.5
 20
0.5
 30
0.0
 11
0.5
 21
0.5
 31
0.0
  0
LINE
  5
CC
330
9D
100
AcDbEntity
  8
0
  6
CONTINUOUS
 62
     0
100
AcDbLine
 10
0.5
 20
0.5
 30
0.0
 11
0.5
 21
-0.5
 31
0.0
  0
LINE
  5
CD
330
9D
100
AcDbEntity
  8
0
  6
CONTINUOUS
 62
     0
100
AcDbLine
 10
0.5
 20
-0.5
 30
0.0
 11
-0.5
 21
-0.5
 31
0.0
  0
LINE
  5
CE
330
9D
100
AcDbEntity
  8
0
  6
CONTINUOUS
 62
     0
100
AcDbLine
 10
-0.5
 20
-0.5
 30
0.0
 11
-0.5
 21
0.5
 31
0.0
  0
LINE
  5
CF
330
9D
100
AcDbEntity
  8
0
  6
CONTINUOUS
 62
     0
100
AcDbLine
 10
-0.25
 20
0.25
 30
0.0
 11
0.25
 21
0.25
 31
0.0
  0
LINE
  5
D0
330
9D
100
AcDbEntity
  8
0
  6
CONTINUOUS
 62
     0
100
AcDbLine
 10
0.25
 20
0.25
 30
0.0
 11
0.25
 21
-0.25
 31
0.0
  0
LINE
  5
D1
330
9D
100
AcDbEntity
  8
0
  6
CONTINUOUS
 62
     0
100
AcDbLine
 10
0.25
 20
-0.25
 30
0.0
 11
-0.25
 21
-0.25
 31
0.0
  0
LINE
  5
D2
330
9D
100
AcDbEntity
  8
0
  6
CONTINUOUS
 62
     0
100
AcDbLine
 10
-0.25
 20
-0.25
 30
0.0
 11
-0.25
 21
0.25
 31
0.0
  0
ENDBLK
  5
9F
330
9D
100
AcDbEntity
  8
0
100
AcDbBlockEnd
  0
BLOCK
  5
A1
330
A0
100
AcDbEntity
  8
0
100
AcDbBlockBegin
  2
EX_WBOX
 70
     0
 10
0.0
 20
0.0
 30
0.0
  3
EX_WBOX
  1

  0
LINE
  5
D3
330
A0
100
AcDbEntity
  8
0
  6
CONTINUOUS
 62
     0
100
AcDbLine
 10
-0.5
 20
0.0
 30
0.0
 11
-1.0
 21
0.0
 31
0.0
  0
LINE
  5
D4
330
A0
100
AcDbEntity
  8
0
  6
CONTINUOUS
 62
     0
100
AcDbLine
 10
-0.5
 20
0.5
 30
0.0
 11
0.5
 21
0.5
 31
0.0
  0
LINE
  5
D5
330
A0
100
AcDbEntity
  8
0
  6
CONTINUOUS
 62
     0
100
AcDbLine
 10
0.5
 20
0.5
 30
0.0
 11
0.5
 21
-0.5
 31
0.0
  0
LINE
  5
D6
330
A0
100
AcDbEntity
  8
0
  6
CONTINUOUS
 62
     0
100
AcDbLine
 10
0.5
 20
-0.5
 30
0.0
 11
-0.5
 21
-0.5
 31
0.0
  0
LINE
  5
D7
330
A0
100
AcDbEntity
  8
0
  6
CONTINUOUS
 62
     0
100
AcDbLine
 10
-0.5
 20
-0.5
 30
0.0
 11
-0.5
 21
0.5
 31
0.0
  0
ENDBLK
  5
A2
330
A0
100
AcDbEntity
  8
0
100
AcDbBlockEnd
  0
BLOCK
  5
A4
330
A3
100
AcDbEntity
  8
0
100
AcDbBlockBegin
  2
EX_INTEGRAL
 70
     0
 10
0.0
 20
0.0
 30
0.0
  3
EX_INTEGRAL
  1

  0
LINE
  5
D8
330
A3
100
AcDbEntity
  8
0
  6
CONTINUOUS
 62
     0
100
AcDbLine
 10
0.0
 20
0.0
 30
0.0
 11
-1.0
 21
0.0
 31
0.0
  0
ARC
  5
D9
330
A3
100
AcDbEntity
  8
0
  6
CONTINUOUS
 62
     0
100
AcDbCircle
 10
0.542115
 20
0.164992
 30
0.0
 40
0.56667
100
AcDbArc
 50
73.07249033629006
 51
196.9275130221199
  0
ARC
  5
DA
330
A3
100
AcDbEntity
  8
0
  6
CONTINUOUS
 62
     0
100
AcDbCircle
 10
-0.542115
 20
-0.164992
 30
0.0
 40
0.56667
100
AcDbArc
 50
253.0724869220464
 51
16.9275130559125
  0
ENDBLK
  5
A5
330
A3
100
AcDbEntity
  8
0
100
AcDbBlockEnd
  0
BLOCK
  5
A7
330
A6
100
AcDbEntity
  8
0
100
AcDbBlockBegin
  2
HN16
 70
     0
 10
0.0
 20
0.0
 30
0.0
  3
HN16
  1

  0
LINE
  5
DB
330
A6
100
AcDbEntity
  8
0
  6
CONTINUOUS
 62
     3
100
AcDbLine
 10
-12.99998799999999
 20
-11.50003100000001
 30
0.0
 11
-12.99998799999999
 21
11.49996899999999
 31
0.0
  0
LINE
  5
DC
330
A6
100
AcDbEntity
  8
0
  6
CONTINUOUS
 62
     3
100
AcDbLine
 10
-12.99998799999999
 20
11.49996899999999
 30
0.0
 11
-11.639461
 21
13.85647499999999
 31
0.0
  0
ARC
  5
DD
330
A6
100
AcDbEntity
  8
0
  6
CONTINUOUS
 62
     3
100
AcDbCircle
 10
5.319939000000005
 20
-0.000031000000007
 30
0.0
 40
18.31995
100
AcDbArc
 50
157.7792841581817
 51
202.220870129063
  0
ARC
  5
DE
330
A6
100
AcDbEntity
  8
0
  6
CONTINUOUS
 62
     3
100
AcDbCircle
 10
-4.364737999999988
 20
11.58123699999999
 30
0.0
 40
8.635792
100
AcDbArc
 50
180.5392304288405
 51
212.6040685882033
  0
LINE
  5
DF
330
A6
100
AcDbEntity
  8
0
  6
CONTINUOUS
 62
     3
100
AcDbLine
 10
-12.99998799999999
 20
-11.50006100000002
 30
0.0
 11
-11.639461
 21
-13.85656800000001
 31
0.0
  0
ARC
  5
E0
330
A6
100
AcDbEntity
  8
0
  6
CONTINUOUS
 62
     3
100
AcDbCircle
 10
-4.364737999999988
 20
-11.58133000000001
 30
0.0
 40
8.635792
100
AcDbArc
 50
147.3959314117967
 51
179.460826866939
  0
LINE
  5
E1
330
A6
100
AcDbEntity
  8
0
  6
CONTINUOUS
 62
     3
100
AcDbLine
 10
0.0
 20
13.85644499999998
 30
0.0
 11
0.0
 21
-13.85643000000002
 31
0.0
  0
LINE
  5
E2
330
A6
100
AcDbEntity
  8
0
  6
CONTINUOUS
 62
     3
100
AcDbLine
 10
-11.63946499999999
 20
13.85647499999999
 30
0.0
 11
0.0
 21
13.85644499999998
 31
0.0
  0
LINE
  5
E3
330
A6
100
AcDbEntity
  8
0
  6
CONTINUOUS
 62
     3
100
AcDbLine
 10
-11.639377
 20
-6.928208000000012
 30
0.0
 11
-0.0000459999999975
 21
-6.928177000000005
 31
0.0
  0
LINE
  5
E4
330
A6
100
AcDbEntity
  8
0
  6
CONTINUOUS
 62
     3
100
AcDbLine
 10
-11.63943099999999
 20
6.928115999999989
 30
0.0
 11
-0.0000459999999975
 21
6.928145999999998
 31
0.0
  0
LINE
  5
E5
330
A6
100
AcDbEntity
  8
0
  6
CONTINUOUS
 62
     3
100
AcDbLine
 10
-11.63946499999999
 20
-13.85656800000001
 30
0.0
 11
0.0
 21
-13.85656800000001
 31
0.0
  0
ENDBLK
  5
A8
330
A6
100
AcDbEntity
  8
0
100
AcDbBlockEnd
  0
ENDSEC
  0
SECTION
  2
ENTITIES
  0
TEXT
  5
E7
330
1F
100
AcDbEntity
  8
LAY-1
  6
CONTINUOUS
 62
     3
100
AcDbText
 10
417.2
 20
619.3656249999999
 30
0.0
 40
6.149794801641587
  1
ＳＴＡＩＮＬＥＳＳ　ＳＴＥＥＬ
  7
EXCADTTF1
 72
     5
 11
552.2
 21
619.3656249999999
 31
0.0
100
AcDbText
  0
TEXT
  5
E8
330
1F
100
AcDbEntity
  8
LAY-1
  6
CONTINUOUS
 62
     3
100
AcDbText
 10
417.2
 20
601.3656249999999
 30
0.0
 40
6.149794801641587
  1
ＳＩＧＨＴ　ＧＬＡＳＳ
  7
EXCADTTF1
 72
     5
 11
516.2
 21
601.3656249999999
 31
0.0
100
AcDbText
  0
TEXT
  5
E9
330
1F
100
AcDbEntity
  8
LAY-1
  6
CONTINUOUS
 62
     3
100
AcDbText
 10
417.2
 20
565.3656249999999
 30
0.0
 40
6.149794801641587
  1
１０Ｋ－１５０Ａ
  7
EXCADTTF1
 72
     5
 11
489.2
 21
565.3656249999999
 31
0.0
100
AcDbText
  0
CIRCLE
  5
EA
330
1F
100
AcDbEntity
  8
LAY-1
  6
CONTINUOUS
 62
     3
100
AcDbCircle
 10
203.0
 20
602.0
 30
0.0
 40
140.0
  0
LINE
  5
EB
330
1F
100
AcDbEntity
  8
LAY-1
  6
EXLTYPE2
 62
     1
100
AcDbLine
 10
44.0
 20
602.0
 30
0.0
 11
360.0
 21
602.0
 31
0.0
  0
LINE
  5
EC
330
1F
100
AcDbEntity
  8
LAY-1
  6
EXLTYPE2
 62
     1
100
AcDbLine
 10
203.0
 20
758.0
 30
0.0
 11
203.0
 21
437.0
 31
0.0
  0
CIRCLE
  5
ED
330
1F
100
AcDbEntity
  8
LAY-1
  6
CONTINUOUS
 62
     3
100
AcDbCircle
 10
203.0
 20
602.0
 30
0.0
 40
106.0
  0
CIRCLE
  5
EE
330
1F
100
AcDbEntity
  8
LAY-1
  6
CONTINUOUS
 62
     3
100
AcDbCircle
 10
203.0
 20
602.0
 30
0.0
 40
77.6
  0
CIRCLE
  5
EF
330
1F
100
AcDbEntity
  8
LAY-1
  6
EXLTYPE2
 62
     1
100
AcDbCircle
 10
203.0
 20
602.0
 30
0.0
 40
120.0
  0
LINE
  5
F0
330
1F
100
AcDbEntity
  8
LAY-1
  6
CONTINUOUS
 62
     3
100
AcDbLine
 10
120.3999999999992
 20
113.0000000000011
 30
0.0
 11
114.4000000000066
 21
107.0000000000002
 31
0.0
  0
LINE
  5
F1
330
1F
100
AcDbEntity
  8
LAY-1
  6
CONTINUOUS
 62
     3
100
AcDbLine
 10
285.6000000000007
 20
113.0000000000011
 30
0.0
 11
291.5999999999933
 21
107.0000000000002
 31
0.0
  0
LINE
  5
F2
330
1F
100
AcDbEntity
  8
LAY-1
  6
EXLTYPE2
 62
     1
100
AcDbLine
 10
83.0
 20
111.5
 30
0.0
 11
83.0
 21
80.0
 31
0.0
  0
LINE
  5
F3
330
1F
100
AcDbEntity
  8
LAY-1
  6
EXLTYPE2
 62
     1
100
AcDbLine
 10
323.0
 20
111.5
 30
0.0
 11
323.0
 21
80.0
 31
0.0
  0
LINE
  5
F4
330
1F
100
AcDbEntity
  8
LAY-1
  6
CONTINUOUS
 62
     3
100
AcDbLine
 10
97.0
 20
85.00000000000011
 30
0.0
 11
97.0
 21
87.00000000000011
 31
0.0
  0
LINE
  5
F5
330
1F
100
AcDbEntity
  8
LAY-1
  6
CONTINUOUS
 62
     3
100
AcDbLine
 10
308.9999999999997
 20
85.00000000000011
 30
0.0
 11
308.9999999999998
 21
87.00000000000011
 31
0.0
  0
LINE
  5
F6
330
1F
100
AcDbEntity
  8
LAY-1
  6
CONTINUOUS
 62
     3
100
AcDbLine
 10
342.9999999999998
 20
107.0000000000001
 30
0.0
 11
342.9999999999999
 21
87.0000000000002
 31
0.0
  0
LINE
  5
F7
330
1F
100
AcDbEntity
  8
LAY-1
  6
CONTINUOUS
 62
     3
100
AcDbLine
 10
335.4999999999998
 20
185.0000000000001
 30
0.0
 11
335.4999999999998
 21
167.0000000000001
 31
0.0
  0
LINE
  5
F8
330
1F
100
AcDbEntity
  8
LAY-1
  6
CONTINUOUS
 62
     3
100
AcDbLine
 10
203.0
 20
185.0000000000001
 30
0.0
 11
335.4999999999998
 21
185.0000000000001
 31
0.0
  0
LINE
  5
F9
330
1F
100
AcDbEntity
  8
LAY-1
  6
CONTINUOUS
 62
     3
100
AcDbLine
 10
70.5
 20
185.0
 30
0.0
 11
70.5
 21
167.0
 31
0.0
  0
LINE
  5
FA
330
1F
100
AcDbEntity
  8
LAY-1
  6
CONTINUOUS
 62
     3
100
AcDbLine
 10
70.5
 20
185.0
 30
0.0
 11
203.0
 21
185.0
 31
0.0
  0
LINE
  5
FB
330
1F
100
AcDbEntity
  8
LAY-1
  6
CONTINUOUS
 62
     3
100
AcDbLine
 10
203.0
 20
85.00000000000006
 30
0.0
 11
309.0
 21
85.00000000000009
 31
0.0
  0
LINE
  5
FC
330
1F
100
AcDbEntity
  8
LAY-1
  6
CONTINUOUS
 62
     3
100
AcDbLine
 10
203.0
 20
85.00000000000003
 30
0.0
 11
97.0
 21
85.0
 31
0.0
  0
LINE
  5
FD
330
1F
100
AcDbEntity
  8
LAY-1
  6
CONTINUOUS
 62
     3
100
AcDbLine
 10
63.0
 20
107.0
 30
0.0
 11
63.0
 21
87.00000000000011
 31
0.0
  0
LINE
  5
FE
330
1F
100
AcDbEntity
  8
LAY-1
  6
CONTINUOUS
 62
     3
100
AcDbLine
 10
203.0
 20
167.0
 30
0.0
 11
70.5
 21
167.0
 31
0.0
  0
LINE
  5
FF
330
1F
100
AcDbEntity
  8
LAY-1
  6
CONTINUOUS
 62
     3
100
AcDbLine
 10
203.0
 20
167.0000000000001
 30
0.0
 11
335.4999999999998
 21
167.0000000000001
 31
0.0
  0
LINE
  5
100
330
1F
100
AcDbEntity
  8
LAY-1
  6
CONTINUOUS
 62
     3
100
AcDbLine
 10
203.0
 20
107.0
 30
0.0
 11
63.0
 21
107.0
 31
0.0
  0
LINE
  5
101
330
1F
100
AcDbEntity
  8
LAY-1
  6
CONTINUOUS
 62
     3
100
AcDbLine
 10
203.0
 20
107.0
 30
0.0
 11
342.9999999999998
 21
107.0000000000001
 31
0.0
  0
LINE
  5
102
330
1F
100
AcDbEntity
  8
LAY-1
  6
CONTINUOUS
 62
     3
100
AcDbLine
 10
203.0
 20
87.00000000000011
 30
0.0
 11
63.0
 21
87.00000000000011
 31
0.0
  0
LINE
  5
103
330
1F
100
AcDbEntity
  8
LAY-1
  6
CONTINUOUS
 62
     3
100
AcDbLine
 10
203.0
 20
87.0000000000001
 30
0.0
 11
342.9999999999998
 21
87.00000000000011
 31
0.0
  0
LINE
  5
104
330
1F
100
AcDbEntity
  8
LAY-1
  6
CONTINUOUS
 62
     3
100
AcDbLine
 10
120.4
 20
113.000000000002
 30
0.0
 11
285.6
 21
113.000000000002
 31
0.0
  0
LINE
  5
105
330
1F
100
AcDbEntity
  8
LAY-1
  6
CONTINUOUS
 62
     3
100
AcDbLine
 10
120.3999999999992
 20
336.999999999999
 30
0.0
 11
114.4000000000066
 21
342.9999999999999
 31
0.0
  0
LINE
  5
106
330
1F
100
AcDbEntity
  8
LAY-1
  6
CONTINUOUS
 62
     3
100
AcDbLine
 10
285.6000000000007
 20
336.9999999999989
 30
0.0
 11
291.5999999999933
 21
342.9999999999998
 31
0.0
  0
LINE
  5
107
330
1F
100
AcDbEntity
  8
LAY-1
  6
EXLTYPE2
 62
     1
100
AcDbLine
 10
83.0
 20
338.5000000000001
 30
0.0
 11
83.0
 21
370.0
 31
0.0
  0
LINE
  5
108
330
1F
100
AcDbEntity
  8
LAY-1
  6
EXLTYPE2
 62
     1
100
AcDbLine
 10
323.0
 20
338.5
 30
0.0
 11
323.0
 21
370.0
 31
0.0
  0
LINE
  5
109
330
1F
100
AcDbEntity
  8
LAY-1
  6
CONTINUOUS
 62
     3
100
AcDbLine
 10
97.0
 20
364.9999999999999
 30
0.0
 11
97.0
 21
362.9999999999999
 31
0.0
  0
LINE
  5
10A
330
1F
100
AcDbEntity
  8
LAY-1
  6
CONTINUOUS
 62
     3
100
AcDbLine
 10
308.9999999999997
 20
364.9999999999999
 30
0.0
 11
308.9999999999998
 21
362.9999999999999
 31
0.0
  0
LINE
  5
10B
330
1F
100
AcDbEntity
  8
LAY-1
  6
CONTINUOUS
 62
     3
100
AcDbLine
 10
342.9999999999998
 20
342.9999999999999
 30
0.0
 11
342.9999999999999
 21
362.9999999999998
 31
0.0
  0
LINE
  5
10C
330
1F
100
AcDbEntity
  8
LAY-1
  6
CONTINUOUS
 62
     3
100
AcDbLine
 10
335.4999999999998
 20
264.9999999999999
 30
0.0
 11
335.4999999999998
 21
282.9999999999999
 31
0.0
  0
LINE
  5
10D
330
1F
100
AcDbEntity
  8
LAY-1
  6
CONTINUOUS
 62
     3
100
AcDbLine
 10
203.0
 20
265.0
 30
0.0
 11
335.4999999999998
 21
264.9999999999999
 31
0.0
  0
LINE
  5
10E
330
1F
100
AcDbEntity
  8
LAY-1
  6
CONTINUOUS
 62
     3
100
AcDbLine
 10
70.5
 20
265.0000000000001
 30
0.0
 11
70.5
 21
283.0000000000001
 31
0.0
  0
LINE
  5
10F
330
1F
100
AcDbEntity
  8
LAY-1
  6
CONTINUOUS
 62
     3
100
AcDbLine
 10
70.5
 20
265.0000000000001
 30
0.0
 11
203.0
 21
265.0
 31
0.0
  0
LINE
  5
110
330
1F
100
AcDbEntity
  8
LAY-1
  6
CONTINUOUS
 62
     3
100
AcDbLine
 10
203.0
 20
365.0
 30
0.0
 11
309.0
 21
364.9999999999999
 31
0.0
  0
LINE
  5
111
330
1F
100
AcDbEntity
  8
LAY-1
  6
CONTINUOUS
 62
     3
100
AcDbLine
 10
203.0
 20
365.0
 30
0.0
 11
97.0
 21
365.0
 31
0.0
  0
LINE
  5
112
330
1F
100
AcDbEntity
  8
LAY-1
  6
CONTINUOUS
 62
     3
100
AcDbLine
 10
63.0
 20
343.0000000000001
 30
0.0
 11
63.0
 21
362.9999999999999
 31
0.0
  0
LINE
  5
113
330
1F
100
AcDbEntity
  8
LAY-1
  6
CONTINUOUS
 62
     3
100
AcDbLine
 10
203.0
 20
283.0
 30
0.0
 11
70.5
 21
283.0000000000001
 31
0.0
  0
LINE
  5
114
330
1F
100
AcDbEntity
  8
LAY-1
  6
CONTINUOUS
 62
     3
100
AcDbLine
 10
203.0
 20
283.0
 30
0.0
 11
335.4999999999998
 21
282.9999999999999
 31
0.0
  0
LINE
  5
115
330
1F
100
AcDbEntity
  8
LAY-1
  6
CONTINUOUS
 62
     3
100
AcDbLine
 10
203.0
 20
343.0
 30
0.0
 11
63.0
 21
343.0000000000001
 31
0.0
  0
LINE
  5
116
330
1F
100
AcDbEntity
  8
LAY-1
  6
CONTINUOUS
 62
     3
100
AcDbLine
 10
203.0
 20
343.0
 30
0.0
 11
342.9999999999998
 21
342.9999999999999
 31
0.0
  0
LINE
  5
117
330
1F
100
AcDbEntity
  8
LAY-1
  6
CONTINUOUS
 62
     3
100
AcDbLine
 10
203.0
 20
362.9999999999999
 30
0.0
 11
63.0
 21
362.9999999999999
 31
0.0
  0
LINE
  5
118
330
1F
100
AcDbEntity
  8
LAY-1
  6
CONTINUOUS
 62
     3
100
AcDbLine
 10
203.0
 20
362.9999999999999
 30
0.0
 11
342.9999999999998
 21
362.9999999999999
 31
0.0
  0
LINE
  5
119
330
1F
100
AcDbEntity
  8
LAY-1
  6
CONTINUOUS
 62
     3
100
AcDbLine
 10
120.4
 20
336.9999999999981
 30
0.0
 11
285.6
 21
336.999999999998
 31
0.0
  0
CIRCLE
  5
11A
330
1F
100
AcDbEntity
  8
LAY-1
  6
CONTINUOUS
 62
     3
100
AcDbCircle
 10
248.92201188382
 20
712.86554390135
 30
0.0
 40
11.5
  0
LINE
  5
11B
330
1F
100
AcDbEntity
  8
LAY-1
  6
EXLTYPE2
 62
     1
100
AcDbLine
 10
73.65686544841918
 20
655.575680531111
 30
0.0
 11
117.6949134723662
 21
637.3345237791551
 31
0.0
  0
LINE
  5
11C
330
1F
100
AcDbEntity
  8
LAY-1
  6
EXLTYPE2
 62
     1
100
AcDbLine
 10
149.424319468879
 20
731.3431345515767
 30
0.0
 11
166.8829906421086
 21
689.1941738241562
 31
0.0
  0
LINE
  5
11D
330
1F
100
AcDbEntity
  8
LAY-1
  6
EXLTYPE2
 62
     1
100
AcDbLine
 10
256.5756805311223
 20
731.343134551579
 30
0.0
 11
238.2027957955185
 21
686.9870670429696
 31
0.0
  0
LINE
  5
11E
330
1F
100
AcDbEntity
  8
LAY-1
  6
EXLTYPE2
 62
     1
100
AcDbLine
 10
332.3431345515809
 20
655.5756805311108
 30
0.0
 11
289.7799602617866
 21
637.945436482629
 31
0.0
  0
LINE
  5
11F
330
1F
100
AcDbEntity
  8
LAY-1
  6
EXLTYPE2
 62
     1
100
AcDbLine
 10
121.4271465193999
 20
568.2114177668639
 30
0.0
 11
73.65686544841893
 21
548.4243194688897
 31
0.0
  0
LINE
  5
120
330
1F
100
AcDbEntity
  8
LAY-1
  6
EXLTYPE2
 62
     1
100
AcDbLine
 10
168.0545635173739
 20
517.6342533005854
 30
0.0
 11
149.4243194688904
 21
472.6568654484186
 31
0.0
  0
LINE
  5
121
330
1F
100
AcDbEntity
  8
LAY-1
  6
EXLTYPE2
 62
     1
100
AcDbLine
 10
237.4099025766935
 20
518.9271465193988
 30
0.0
 11
256.5756805311097
 21
472.6568654484187
 31
0.0
  0
LINE
  5
122
330
1F
100
AcDbEntity
  8
LAY-1
  6
EXLTYPE2
 62
     1
100
AcDbLine
 10
285.7799602617866
 20
567.7114177668639
 30
0.0
 11
332.3431345515811
 21
548.4243194688896
 31
0.0
  0
CIRCLE
  5
123
330
1F
100
AcDbEntity
  8
LAY-1
  6
CONTINUOUS
 62
     3
100
AcDbCircle
 10
157.07798811618
 20
712.86554390135
 30
0.0
 40
11.5
  0
CIRCLE
  5
124
330
1F
100
AcDbEntity
  8
LAY-1
  6
CONTINUOUS
 62
     3
100
AcDbCircle
 10
92.13445609864499
 20
647.92201188381
 30
0.0
 40
11.5
  0
CIRCLE
  5
125
330
1F
100
AcDbEntity
  8
LAY-1
  6
CONTINUOUS
 62
     3
100
AcDbCircle
 10
92.13445609864497
 20
556.07798811619
 30
0.0
 40
11.5
  0
CIRCLE
  5
126
330
1F
100
AcDbEntity
  8
LAY-1
  6
CONTINUOUS
 62
     3
100
AcDbCircle
 10
157.07798811619
 20
491.13445609864
 30
0.0
 40
11.5
  0
CIRCLE
  5
127
330
1F
100
AcDbEntity
  8
LAY-1
  6
CONTINUOUS
 62
     3
100
AcDbCircle
 10
248.92201188381
 20
491.13445609864
 30
0.0
 40
11.5
  0
CIRCLE
  5
128
330
1F
100
AcDbEntity
  8
LAY-1
  6
CONTINUOUS
 62
     3
100
AcDbCircle
 10
313.86554390136
 20
556.07798811619
 30
0.0
 40
11.5
  0
CIRCLE
  5
129
330
1F
100
AcDbEntity
  8
LAY-1
  6
CONTINUOUS
 62
     3
100
AcDbCircle
 10
313.86554390136
 20
647.92201188381
 30
0.0
 40
11.5
  0
LINE
  5
12A
330
1F
100
AcDbEntity
  8
LAY-1
  6
EXLTYPE2
 62
     1
100
AcDbLine
 10
202.9999999999999
 20
383.0
 30
0.0
 11
202.9999999999999
 21
65.0
 31
0.0
  0
LINE
  5
12B
330
1F
100
AcDbEntity
  8
LAY-1
  6
CONTINUOUS
 62
     3
100
AcDbLine
 10
94.00001499999999
 20
300.0
 30
0.0
 11
82.00001499999999
 21
300.0
 31
0.0
  0
LINE
  5
12C
330
1F
100
AcDbEntity
  8
LAY-1
  6
CONTINUOUS
 62
     3
100
AcDbLine
 10
80.00001499999999
 20
298.0
 30
0.0
 11
82.00001499999999
 21
300.0
 31
0.0
  0
LINE
  5
12D
330
1F
100
AcDbEntity
  8
LAY-1
  6
CONTINUOUS
 62
     3
100
AcDbLine
 10
96.000015
 20
298.0
 30
0.0
 11
80.00001499999999
 21
298.0
 31
0.0
  0
LINE
  5
12E
330
1F
100
AcDbEntity
  8
LAY-1
  6
CONTINUOUS
 62
     3
100
AcDbLine
 10
96.000015
 20
298.0
 30
0.0
 11
94.00001499999999
 21
300.0
 31
0.0
  0
LINE
  5
12F
330
1F
100
AcDbEntity
  8
LAY-1
  6
CONTINUOUS
 62
     3
100
AcDbLine
 10
96.00001499999999
 20
240.0
 30
0.0
 11
80.00001499999999
 21
240.0
 31
0.0
  0
LINE
  5
130
330
1F
100
AcDbEntity
  8
LAY-1
  6
CONTINUOUS
 62
     1
100
AcDbLine
 10
80.00001499999999
 20
236.999998
 30
0.0
 11
81.08252000000002
 21
240.0
 31
0.0
  0
LINE
  5
131
330
1F
100
AcDbEntity
  8
LAY-1
  6
CONTINUOUS
 62
     1
100
AcDbLine
 10
96.00001499999999
 20
236.999998
 30
0.0
 11
94.91751099999999
 21
240.0
 31
0.0
  0
LINE
  5
132
330
1F
100
AcDbEntity
  8
LAY-1
  6
CONTINUOUS
 62
     3
100
AcDbLine
 10
94.00001499999996
 20
150.0000000000001
 30
0.0
 11
82.00001499999996
 21
150.0000000000001
 31
0.0
  0
LINE
  5
133
330
1F
100
AcDbEntity
  8
LAY-1
  6
CONTINUOUS
 62
     3
100
AcDbLine
 10
80.00001499999996
 20
152.0000000000001
 30
0.0
 11
82.00001499999996
 21
150.0000000000001
 31
0.0
  0
LINE
  5
134
330
1F
100
AcDbEntity
  8
LAY-1
  6
CONTINUOUS
 62
     3
100
AcDbLine
 10
96.00001500000002
 20
152.0000000000001
 30
0.0
 11
80.00001499999996
 21
152.0000000000001
 31
0.0
  0
LINE
  5
135
330
1F
100
AcDbEntity
  8
LAY-1
  6
CONTINUOUS
 62
     3
100
AcDbLine
 10
96.00001500000002
 20
152.0000000000001
 30
0.0
 11
94.00001499999996
 21
150.0000000000001
 31
0.0
  0
LINE
  5
136
330
1F
100
AcDbEntity
  8
LAY-1
  6
CONTINUOUS
 62
     3
100
AcDbLine
 10
96.00001499999996
 20
210.0
 30
0.0
 11
80.00001499999996
 21
210.0000000000001
 31
0.0
  0
LINE
  5
137
330
1F
100
AcDbEntity
  8
LAY-1
  6
CONTINUOUS
 62
     1
100
AcDbLine
 10
80.00001499999996
 20
213.0000020000001
 30
0.0
 11
81.08252000000005
 21
210.0000000000001
 31
0.0
  0
LINE
  5
138
330
1F
100
AcDbEntity
  8
LAY-1
  6
CONTINUOUS
 62
     1
100
AcDbLine
 10
96.00001499999996
 20
213.000002
 30
0.0
 11
94.91751099999999
 21
210.0
 31
0.0
  0
LINE
  5
139
330
1F
100
AcDbEntity
  8
LAY-1
  6
EXLTYPE0
 62
     1
100
AcDbLine
 10
88.00000000000001
 20
144.4
 30
0.0
 11
88.0
 21
307.0
 31
0.0
  0
INSERT
  5
13A
330
1F
100
AcDbEntity
  8
LAY-1
  6
CONTINUOUS
 62
     0
100
AcDbBlockReference
  2
HN16
 10
88.0
 20
283.0
 30
0.0
 50
270.0
  0
INSERT
  5
13B
330
1F
100
AcDbEntity
  8
LAY-1
  6
CONTINUOUS
 62
     0
100
AcDbBlockReference
  2
HN16
 10
88.0
 20
185.0
 30
0.0
 50
270.0
  0
INSERT
  5
13C
330
1F
100
AcDbEntity
  8
LAY-1
  6
CONTINUOUS
 62
     0
100
AcDbBlockReference
  2
HN16
 10
88.0
 20
265.0
 30
0.0
 50
90.0
  0
INSERT
  5
13D
330
1F
100
AcDbEntity
  8
LAY-1
  6
CONTINUOUS
 62
     0
100
AcDbBlockReference
  2
HN16
 10
88.0
 20
167.0
 30
0.0
 50
90.0
  0
LINE
  5
13E
330
1F
100
AcDbEntity
  8
LAY-1
  6
CONTINUOUS
 62
     3
100
AcDbLine
 10
80.00001499999999
 20
295.999988
 30
0.0
 11
80.00001499999999
 21
298.0
 31
0.0
  0
LINE
  5
13F
330
1F
100
AcDbEntity
  8
LAY-1
  6
CONTINUOUS
 62
     1
100
AcDbLine
 10
81.08252000000002
 20
295.999988
 30
0.0
 11
81.08252000000002
 21
299.082511
 31
0.0
  0
LINE
  5
140
330
1F
100
AcDbEntity
  8
LAY-1
  6
CONTINUOUS
 62
     1
100
AcDbLine
 10
94.91751099999999
 20
295.999988
 30
0.0
 11
94.91751099999999
 21
299.082511
 31
0.0
  0
LINE
  5
141
330
1F
100
AcDbEntity
  8
LAY-1
  6
CONTINUOUS
 62
     3
100
AcDbLine
 10
96.00001500000002
 20
295.999988
 30
0.0
 11
96.000015
 21
298.0
 31
0.0
  0
LINE
  5
142
330
1F
100
AcDbEntity
  8
LAY-1
  6
CONTINUOUS
 62
     1
100
AcDbLine
 10
81.08252000000002
 20
240.0
 30
0.0
 11
81.08252000000002
 21
252.000012
 31
0.0
  0
LINE
  5
143
330
1F
100
AcDbEntity
  8
LAY-1
  6
CONTINUOUS
 62
     1
100
AcDbLine
 10
94.91751099999999
 20
240.0
 30
0.0
 11
94.91751099999999
 21
252.000012
 31
0.0
  0
LINE
  5
144
330
1F
100
AcDbEntity
  8
LAY-1
  6
CONTINUOUS
 62
     3
100
AcDbLine
 10
80.00001499999999
 20
197.999988
 30
0.0
 11
80.00001499999996
 21
252.000012
 31
0.0
  0
LINE
  5
145
330
1F
100
AcDbEntity
  8
LAY-1
  6
CONTINUOUS
 62
     1
100
AcDbLine
 10
81.08252000000005
 20
210.0000000000001
 30
0.0
 11
81.08252000000005
 21
197.999988
 31
0.0
  0
LINE
  5
146
330
1F
100
AcDbEntity
  8
LAY-1
  6
CONTINUOUS
 62
     1
100
AcDbLine
 10
94.91751099999999
 20
210.0
 30
0.0
 11
94.91751099999999
 21
197.999988
 31
0.0
  0
LINE
  5
147
330
1F
100
AcDbEntity
  8
LAY-1
  6
CONTINUOUS
 62
     3
100
AcDbLine
 10
96.00001499999999
 20
197.999988
 30
0.0
 11
96.00001499999999
 21
252.000012
 31
0.0
  0
LINE
  5
148
330
1F
100
AcDbEntity
  8
LAY-1
  6
CONTINUOUS
 62
     3
100
AcDbLine
 10
80.000015
 20
152.0
 30
0.0
 11
80.000015
 21
154.000012
 31
0.0
  0
LINE
  5
149
330
1F
100
AcDbEntity
  8
LAY-1
  6
CONTINUOUS
 62
     1
100
AcDbLine
 10
81.08252000000003
 20
154.000012
 30
0.0
 11
81.08252000000005
 21
150.917489
 31
0.0
  0
LINE
  5
14A
330
1F
100
AcDbEntity
  8
LAY-1
  6
CONTINUOUS
 62
     1
100
AcDbLine
 10
94.91751099999998
 20
154.000012
 30
0.0
 11
94.91751099999999
 21
150.917489
 31
0.0
  0
LINE
  5
14B
330
1F
100
AcDbEntity
  8
LAY-1
  6
CONTINUOUS
 62
     3
100
AcDbLine
 10
96.000015
 20
152.0
 30
0.0
 11
96.000015
 21
154.000012
 31
0.0
  0
LINE
  5
14C
330
1F
100
AcDbEntity
  8
LAY-1
  6
CONTINUOUS
 62
     3
100
AcDbLine
 10
127.68273516354
 20
300.0
 30
0.0
 11
115.68273516354
 21
300.0
 31
0.0
  0
LINE
  5
14D
330
1F
100
AcDbEntity
  8
LAY-1
  6
CONTINUOUS
 62
     3
100
AcDbLine
 10
113.68273516354
 20
298.0
 30
0.0
 11
115.68273516354
 21
300.0
 31
0.0
  0
LINE
  5
14E
330
1F
100
AcDbEntity
  8
LAY-1
  6
CONTINUOUS
 62
     3
100
AcDbLine
 10
129.68273516354
 20
298.0
 30
0.0
 11
113.68273516354
 21
298.0
 31
0.0
  0
LINE
  5
14F
330
1F
100
AcDbEntity
  8
LAY-1
  6
CONTINUOUS
 62
     3
100
AcDbLine
 10
129.68273516354
 20
298.0
 30
0.0
 11
127.68273516354
 21
300.0
 31
0.0
  0
LINE
  5
150
330
1F
100
AcDbEntity
  8
LAY-1
  6
CONTINUOUS
 62
     3
100
AcDbLine
 10
129.68273516354
 20
240.0
 30
0.0
 11
113.68273516354
 21
240.0
 31
0.0
  0
LINE
  5
151
330
1F
100
AcDbEntity
  8
LAY-1
  6
CONTINUOUS
 62
     1
100
AcDbLine
 10
113.68273516354
 20
236.999998
 30
0.0
 11
114.76524016354
 21
240.0
 31
0.0
  0
LINE
  5
152
330
1F
100
AcDbEntity
  8
LAY-1
  6
CONTINUOUS
 62
     1
100
AcDbLine
 10
129.68273516354
 20
236.999998
 30
0.0
 11
128.60023116354
 21
240.0
 31
0.0
  0
LINE
  5
153
330
1F
100
AcDbEntity
  8
LAY-1
  6
CONTINUOUS
 62
     3
100
AcDbLine
 10
127.68273516354
 20
150.0000000000001
 30
0.0
 11
115.68273516354
 21
150.0000000000001
 31
0.0
  0
LINE
  5
154
330
1F
100
AcDbEntity
  8
LAY-1
  6
CONTINUOUS
 62
     3
100
AcDbLine
 10
113.68273516354
 20
152.0000000000001
 30
0.0
 11
115.68273516354
 21
150.0000000000001
 31
0.0
  0
LINE
  5
155
330
1F
100
AcDbEntity
  8
LAY-1
  6
CONTINUOUS
 62
     3
100
AcDbLine
 10
129.68273516354
 20
152.0000000000001
 30
0.0
 11
113.68273516354
 21
152.0000000000001
 31
0.0
  0
LINE
  5
156
330
1F
100
AcDbEntity
  8
LAY-1
  6
CONTINUOUS
 62
     3
100
AcDbLine
 10
129.68273516354
 20
152.0000000000001
 30
0.0
 11
127.68273516354
 21
150.0000000000001
 31
0.0
  0
LINE
  5
157
330
1F
100
AcDbEntity
  8
LAY-1
  6
CONTINUOUS
 62
     3
100
AcDbLine
 10
129.68273516354
 20
210.0
 30
0.0
 11
113.68273516354
 21
210.0000000000001
 31
0.0
  0
LINE
  5
158
330
1F
100
AcDbEntity
  8
LAY-1
  6
CONTINUOUS
 62
     1
100
AcDbLine
 10
113.68273516354
 20
213.0000020000001
 30
0.0
 11
114.76524016354
 21
210.0000000000001
 31
0.0
  0
LINE
  5
159
330
1F
100
AcDbEntity
  8
LAY-1
  6
CONTINUOUS
 62
     1
100
AcDbLine
 10
129.68273516354
 20
213.000002
 30
0.0
 11
128.60023116354
 21
210.0
 31
0.0
  0
INSERT
  5
15A
330
1F
100
AcDbEntity
  8
LAY-1
  6
CONTINUOUS
 62
     0
100
AcDbBlockReference
  2
HN16
 10
121.68272016354
 20
283.0
 30
0.0
 50
270.0
  0
INSERT
  5
15B
330
1F
100
AcDbEntity
  8
LAY-1
  6
CONTINUOUS
 62
     0
100
AcDbBlockReference
  2
HN16
 10
121.68272016354
 20
185.0
 30
0.0
 50
270.0
  0
INSERT
  5
15C
330
1F
100
AcDbEntity
  8
LAY-1
  6
CONTINUOUS
 62
     0
100
AcDbBlockReference
  2
HN16
 10
121.68272016354
 20
265.0
 30
0.0
 50
90.0
  0
INSERT
  5
15D
330
1F
100
AcDbEntity
  8
LAY-1
  6
CONTINUOUS
 62
     0
100
AcDbBlockReference
  2
HN16
 10
121.68272016354
 20
167.0
 30
0.0
 50
90.0
  0
LINE
  5
15E
330
1F
100
AcDbEntity
  8
LAY-1
  6
CONTINUOUS
 62
     3
100
AcDbLine
 10
113.68273516354
 20
295.999988
 30
0.0
 11
113.68273516354
 21
298.0
 31
0.0
  0
LINE
  5
15F
330
1F
100
AcDbEntity
  8
LAY-1
  6
CONTINUOUS
 62
     1
100
AcDbLine
 10
114.76524016354
 20
295.999988
 30
0.0
 11
114.76524016354
 21
299.082511
 31
0.0
  0
LINE
  5
160
330
1F
100
AcDbEntity
  8
LAY-1
  6
CONTINUOUS
 62
     1
100
AcDbLine
 10
128.60023116354
 20
295.999988
 30
0.0
 11
128.60023116354
 21
299.082511
 31
0.0
  0
LINE
  5
161
330
1F
100
AcDbEntity
  8
LAY-1
  6
CONTINUOUS
 62
     3
100
AcDbLine
 10
129.68273516354
 20
295.999988
 30
0.0
 11
129.68273516354
 21
298.0
 31
0.0
  0
LINE
  5
162
330
1F
100
AcDbEntity
  8
LAY-1
  6
CONTINUOUS
 62
     1
100
AcDbLine
 10
114.76524016354
 20
240.0
 30
0.0
 11
114.76524016354
 21
252.000012
 31
0.0
  0
LINE
  5
163
330
1F
100
AcDbEntity
  8
LAY-1
  6
CONTINUOUS
 62
     1
100
AcDbLine
 10
128.60023116354
 20
240.0
 30
0.0
 11
128.60023116354
 21
252.000012
 31
0.0
  0
LINE
  5
164
330
1F
100
AcDbEntity
  8
LAY-1
  6
CONTINUOUS
 62
     3
100
AcDbLine
 10
113.68273516354
 20
197.999988
 30
0.0
 11
113.68273516354
 21
252.000012
 31
0.0
  0
LINE
  5
165
330
1F
100
AcDbEntity
  8
LAY-1
  6
CONTINUOUS
 62
     1
100
AcDbLine
 10
114.76524016354
 20
210.0000000000001
 30
0.0
 11
114.76524016354
 21
197.999988
 31
0.0
  0
LINE
  5
166
330
1F
100
AcDbEntity
  8
LAY-1
  6
CONTINUOUS
 62
     1
100
AcDbLine
 10
128.60023116354
 20
210.0
 30
0.0
 11
128.60023116354
 21
197.999988
 31
0.0
  0
LINE
  5
167
330
1F
100
AcDbEntity
  8
LAY-1
  6
CONTINUOUS
 62
     3
100
AcDbLine
 10
129.68273516354
 20
197.999988
 30
0.0
 11
129.68273516354
 21
252.000012
 31
0.0
  0
LINE
  5
168
330
1F
100
AcDbEntity
  8
LAY-1
  6
CONTINUOUS
 62
     3
100
AcDbLine
 10
113.68273516354
 20
152.0
 30
0.0
 11
113.68273516354
 21
154.000012
 31
0.0
  0
LINE
  5
169
330
1F
100
AcDbEntity
  8
LAY-1
  6
CONTINUOUS
 62
     1
100
AcDbLine
 10
114.76524016354
 20
154.000012
 30
0.0
 11
114.76524016354
 21
150.917489
 31
0.0
  0
LINE
  5
16A
330
1F
100
AcDbEntity
  8
LAY-1
  6
CONTINUOUS
 62
     1
100
AcDbLine
 10
128.60023116354
 20
154.000012
 30
0.0
 11
128.60023116354
 21
150.917489
 31
0.0
  0
LINE
  5
16B
330
1F
100
AcDbEntity
  8
LAY-1
  6
CONTINUOUS
 62
     3
100
AcDbLine
 10
129.68273516354
 20
152.0
 30
0.0
 11
129.68273516354
 21
154.000012
 31
0.0
  0
LINE
  5
16C
330
1F
100
AcDbEntity
  8
LAY-1
  6
CONTINUOUS
 62
     3
100
AcDbLine
 10
209.000015
 20
300.0
 30
0.0
 11
197.000015
 21
300.0
 31
0.0
  0
LINE
  5
16D
330
1F
100
AcDbEntity
  8
LAY-1
  6
CONTINUOUS
 62
     3
100
AcDbLine
 10
195.000015
 20
298.0
 30
0.0
 11
197.000015
 21
300.0
 31
0.0
  0
LINE
  5
16E
330
1F
100
AcDbEntity
  8
LAY-1
  6
CONTINUOUS
 62
     3
100
AcDbLine
 10
211.000015
 20
298.0
 30
0.0
 11
195.000015
 21
298.0
 31
0.0
  0
LINE
  5
16F
330
1F
100
AcDbEntity
  8
LAY-1
  6
CONTINUOUS
 62
     3
100
AcDbLine
 10
211.000015
 20
298.0
 30
0.0
 11
209.000015
 21
300.0
 31
0.0
  0
LINE
  5
170
330
1F
100
AcDbEntity
  8
LAY-1
  6
CONTINUOUS
 62
     3
100
AcDbLine
 10
211.000015
 20
240.0
 30
0.0
 11
195.000015
 21
240.0
 31
0.0
  0
LINE
  5
171
330
1F
100
AcDbEntity
  8
LAY-1
  6
CONTINUOUS
 62
     1
100
AcDbLine
 10
195.000015
 20
236.999998
 30
0.0
 11
196.08252
 21
240.0
 31
0.0
  0
LINE
  5
172
330
1F
100
AcDbEntity
  8
LAY-1
  6
CONTINUOUS
 62
     1
100
AcDbLine
 10
211.000015
 20
236.999998
 30
0.0
 11
209.917511
 21
240.0
 31
0.0
  0
LINE
  5
173
330
1F
100
AcDbEntity
  8
LAY-1
  6
CONTINUOUS
 62
     3
100
AcDbLine
 10
209.000015
 20
150.0000000000001
 30
0.0
 11
197.000015
 21
150.0000000000001
 31
0.0
  0
LINE
  5
174
330
1F
100
AcDbEntity
  8
LAY-1
  6
CONTINUOUS
 62
     3
100
AcDbLine
 10
195.000015
 20
152.0000000000001
 30
0.0
 11
197.000015
 21
150.0000000000001
 31
0.0
  0
LINE
  5
175
330
1F
100
AcDbEntity
  8
LAY-1
  6
CONTINUOUS
 62
     3
100
AcDbLine
 10
211.000015
 20
152.0000000000001
 30
0.0
 11
195.000015
 21
152.0000000000001
 31
0.0
  0
LINE
  5
176
330
1F
100
AcDbEntity
  8
LAY-1
  6
CONTINUOUS
 62
     3
100
AcDbLine
 10
211.000015
 20
152.0000000000001
 30
0.0
 11
209.000015
 21
150.0000000000001
 31
0.0
  0
LINE
  5
177
330
1F
100
AcDbEntity
  8
LAY-1
  6
CONTINUOUS
 62
     3
100
AcDbLine
 10
211.000015
 20
210.0
 30
0.0
 11
195.000015
 21
210.0000000000001
 31
0.0
  0
LINE
  5
178
330
1F
100
AcDbEntity
  8
LAY-1
  6
CONTINUOUS
 62
     1
100
AcDbLine
 10
195.000015
 20
213.0000020000001
 30
0.0
 11
196.08252
 21
210.0000000000001
 31
0.0
  0
LINE
  5
179
330
1F
100
AcDbEntity
  8
LAY-1
  6
CONTINUOUS
 62
     1
100
AcDbLine
 10
211.000015
 20
213.000002
 30
0.0
 11
209.917511
 21
210.0
 31
0.0
  0
INSERT
  5
17A
330
1F
100
AcDbEntity
  8
LAY-1
  6
CONTINUOUS
 62
     0
100
AcDbBlockReference
  2
HN16
 10
203.0
 20
283.0
 30
0.0
 50
270.0
  0
INSERT
  5
17B
330
1F
100
AcDbEntity
  8
LAY-1
  6
CONTINUOUS
 62
     0
100
AcDbBlockReference
  2
HN16
 10
203.0
 20
185.0
 30
0.0
 50
270.0
  0
INSERT
  5
17C
330
1F
100
AcDbEntity
  8
LAY-1
  6
CONTINUOUS
 62
     0
100
AcDbBlockReference
  2
HN16
 10
203.0
 20
265.0
 30
0.0
 50
90.0
  0
INSERT
  5
17D
330
1F
100
AcDbEntity
  8
LAY-1
  6
CONTINUOUS
 62
     0
100
AcDbBlockReference
  2
HN16
 10
203.0
 20
167.0
 30
0.0
 50
90.0
  0
LINE
  5
17E
330
1F
100
AcDbEntity
  8
LAY-1
  6
CONTINUOUS
 62
     3
100
AcDbLine
 10
195.000015
 20
295.999988
 30
0.0
 11
195.000015
 21
298.0
 31
0.0
  0
LINE
  5
17F
330
1F
100
AcDbEntity
  8
LAY-1
  6
CONTINUOUS
 62
     1
100
AcDbLine
 10
196.08252
 20
295.999988
 30
0.0
 11
196.08252
 21
299.082511
 31
0.0
  0
LINE
  5
180
330
1F
100
AcDbEntity
  8
LAY-1
  6
CONTINUOUS
 62
     1
100
AcDbLine
 10
209.917511
 20
295.999988
 30
0.0
 11
209.917511
 21
299.082511
 31
0.0
  0
LINE
  5
181
330
1F
100
AcDbEntity
  8
LAY-1
  6
CONTINUOUS
 62
     3
100
AcDbLine
 10
211.000015
 20
295.999988
 30
0.0
 11
211.000015
 21
298.0
 31
0.0
  0
LINE
  5
182
330
1F
100
AcDbEntity
  8
LAY-1
  6
CONTINUOUS
 62
     1
100
AcDbLine
 10
196.08252
 20
240.0
 30
0.0
 11
196.08252
 21
252.000012
 31
0.0
  0
LINE
  5
183
330
1F
100
AcDbEntity
  8
LAY-1
  6
CONTINUOUS
 62
     1
100
AcDbLine
 10
209.917511
 20
240.0
 30
0.0
 11
209.917511
 21
252.000012
 31
0.0
  0
LINE
  5
184
330
1F
100
AcDbEntity
  8
LAY-1
  6
CONTINUOUS
 62
     3
100
AcDbLine
 10
195.000015
 20
197.999988
 30
0.0
 11
195.000015
 21
252.000012
 31
0.0
  0
LINE
  5
185
330
1F
100
AcDbEntity
  8
LAY-1
  6
CONTINUOUS
 62
     1
100
AcDbLine
 10
196.08252
 20
210.0000000000001
 30
0.0
 11
196.08252
 21
197.999988
 31
0.0
  0
LINE
  5
186
330
1F
100
AcDbEntity
  8
LAY-1
  6
CONTINUOUS
 62
     1
100
AcDbLine
 10
209.917511
 20
210.0
 30
0.0
 11
209.917511
 21
197.999988
 31
0.0
  0
LINE
  5
187
330
1F
100
AcDbEntity
  8
LAY-1
  6
CONTINUOUS
 62
     3
100
AcDbLine
 10
211.000015
 20
197.999988
 30
0.0
 11
211.000015
 21
252.000012
 31
0.0
  0
LINE
  5
188
330
1F
100
AcDbEntity
  8
LAY-1
  6
CONTINUOUS
 62
     3
100
AcDbLine
 10
195.000015
 20
152.0
 30
0.0
 11
195.000015
 21
154.000012
 31
0.0
  0
LINE
  5
189
330
1F
100
AcDbEntity
  8
LAY-1
  6
CONTINUOUS
 62
     1
100
AcDbLine
 10
196.08252
 20
154.000012
 30
0.0
 11
196.08252
 21
150.917489
 31
0.0
  0
LINE
  5
18A
330
1F
100
AcDbEntity
  8
LAY-1
  6
CONTINUOUS
 62
     1
100
AcDbLine
 10
209.917511
 20
154.000012
 30
0.0
 11
209.917511
 21
150.917489
 31
0.0
  0
LINE
  5
18B
330
1F
100
AcDbEntity
  8
LAY-1
  6
CONTINUOUS
 62
     3
100
AcDbLine
 10
211.000015
 20
152.0
 30
0.0
 11
211.000015
 21
154.000012
 31
0.0
  0
LINE
  5
18C
330
1F
100
AcDbEntity
  8
LAY-1
  6
CONTINUOUS
 62
     3
100
AcDbLine
 10
290.31729483646
 20
300.0
 30
0.0
 11
278.31729483646
 21
300.0
 31
0.0
  0
LINE
  5
18D
330
1F
100
AcDbEntity
  8
LAY-1
  6
CONTINUOUS
 62
     3
100
AcDbLine
 10
276.31729483646
 20
298.0
 30
0.0
 11
278.31729483646
 21
300.0
 31
0.0
  0
LINE
  5
18E
330
1F
100
AcDbEntity
  8
LAY-1
  6
CONTINUOUS
 62
     3
100
AcDbLine
 10
292.31729483646
 20
298.0
 30
0.0
 11
276.31729483646
 21
298.0
 31
0.0
  0
LINE
  5
18F
330
1F
100
AcDbEntity
  8
LAY-1
  6
CONTINUOUS
 62
     3
100
AcDbLine
 10
292.31729483646
 20
298.0
 30
0.0
 11
290.31729483646
 21
300.0
 31
0.0
  0
LINE
  5
190
330
1F
100
AcDbEntity
  8
LAY-1
  6
CONTINUOUS
 62
     3
100
AcDbLine
 10
292.31729483646
 20
240.0
 30
0.0
 11
276.31729483646
 21
240.0
 31
0.0
  0
LINE
  5
191
330
1F
100
AcDbEntity
  8
LAY-1
  6
CONTINUOUS
 62
     1
100
AcDbLine
 10
276.31729483646
 20
236.999998
 30
0.0
 11
277.39979983646
 21
240.0
 31
0.0
  0
LINE
  5
192
330
1F
100
AcDbEntity
  8
LAY-1
  6
CONTINUOUS
 62
     1
100
AcDbLine
 10
292.31729483646
 20
236.999998
 30
0.0
 11
291.23479083646
 21
240.0
 31
0.0
  0
LINE
  5
193
330
1F
100
AcDbEntity
  8
LAY-1
  6
CONTINUOUS
 62
     3
100
AcDbLine
 10
290.31729483646
 20
150.0000000000001
 30
0.0
 11
278.31729483646
 21
150.0000000000001
 31
0.0
  0
LINE
  5
194
330
1F
100
AcDbEntity
  8
LAY-1
  6
CONTINUOUS
 62
     3
100
AcDbLine
 10
276.31729483646
 20
152.0000000000001
 30
0.0
 11
278.31729483646
 21
150.0000000000001
 31
0.0
  0
LINE
  5
195
330
1F
100
AcDbEntity
  8
LAY-1
  6
CONTINUOUS
 62
     3
100
AcDbLine
 10
292.31729483646
 20
152.0000000000001
 30
0.0
 11
276.31729483646
 21
152.0000000000001
 31
0.0
  0
LINE
  5
196
330
1F
100
AcDbEntity
  8
LAY-1
  6
CONTINUOUS
 62
     3
100
AcDbLine
 10
292.31729483646
 20
152.0000000000001
 30
0.0
 11
290.31729483646
 21
150.0000000000001
 31
0.0
  0
LINE
  5
197
330
1F
100
AcDbEntity
  8
LAY-1
  6
CONTINUOUS
 62
     3
100
AcDbLine
 10
292.31729483646
 20
210.0
 30
0.0
 11
276.31729483646
 21
210.0000000000001
 31
0.0
  0
LINE
  5
198
330
1F
100
AcDbEntity
  8
LAY-1
  6
CONTINUOUS
 62
     1
100
AcDbLine
 10
276.31729483646
 20
213.0000020000001
 30
0.0
 11
277.39979983646
 21
210.0000000000001
 31
0.0
  0
LINE
  5
199
330
1F
100
AcDbEntity
  8
LAY-1
  6
CONTINUOUS
 62
     1
100
AcDbLine
 10
292.31729483646
 20
213.000002
 30
0.0
 11
291.23479083646
 21
210.0
 31
0.0
  0
INSERT
  5
19A
330
1F
100
AcDbEntity
  8
LAY-1
  6
CONTINUOUS
 62
     0
100
AcDbBlockReference
  2
HN16
 10
284.31727983646
 20
283.0
 30
0.0
 50
270.0
  0
INSERT
  5
19B
330
1F
100
AcDbEntity
  8
LAY-1
  6
CONTINUOUS
 62
     0
100
AcDbBlockReference
  2
HN16
 10
284.31727983646
 20
185.0
 30
0.0
 50
270.0
  0
INSERT
  5
19C
330
1F
100
AcDbEntity
  8
LAY-1
  6
CONTINUOUS
 62
     0
100
AcDbBlockReference
  2
HN16
 10
284.31727983646
 20
265.0
 30
0.0
 50
90.0
  0
INSERT
  5
19D
330
1F
100
AcDbEntity
  8
LAY-1
  6
CONTINUOUS
 62
     0
100
AcDbBlockReference
  2
HN16
 10
284.31727983646
 20
167.0
 30
0.0
 50
90.0
  0
LINE
  5
19E
330
1F
100
AcDbEntity
  8
LAY-1
  6
CONTINUOUS
 62
     3
100
AcDbLine
 10
276.31729483646
 20
295.999988
 30
0.0
 11
276.31729483646
 21
298.0
 31
0.0
  0
LINE
  5
19F
330
1F
100
AcDbEntity
  8
LAY-1
  6
CONTINUOUS
 62
     1
100
AcDbLine
 10
277.39979983646
 20
295.999988
 30
0.0
 11
277.39979983646
 21
299.082511
 31
0.0
  0
LINE
  5
1A0
330
1F
100
AcDbEntity
  8
LAY-1
  6
CONTINUOUS
 62
     1
100
AcDbLine
 10
291.23479083646
 20
295.999988
 30
0.0
 11
291.23479083646
 21
299.082511
 31
0.0
  0
LINE
  5
1A1
330
1F
100
AcDbEntity
  8
LAY-1
  6
CONTINUOUS
 62
     3
100
AcDbLine
 10
292.31729483646
 20
295.999988
 30
0.0
 11
292.31729483646
 21
298.0
 31
0.0
  0
LINE
  5
1A2
330
1F
100
AcDbEntity
  8
LAY-1
  6
CONTINUOUS
 62
     1
100
AcDbLine
 10
277.39979983646
 20
240.0
 30
0.0
 11
277.39979983646
 21
252.000012
 31
0.0
  0
LINE
  5
1A3
330
1F
100
AcDbEntity
  8
LAY-1
  6
CONTINUOUS
 62
     1
100
AcDbLine
 10
291.23479083646
 20
240.0
 30
0.0
 11
291.23479083646
 21
252.000012
 31
0.0
  0
LINE
  5
1A4
330
1F
100
AcDbEntity
  8
LAY-1
  6
CONTINUOUS
 62
     3
100
AcDbLine
 10
276.31729483646
 20
197.999988
 30
0.0
 11
276.31729483646
 21
252.000012
 31
0.0
  0
LINE
  5
1A5
330
1F
100
AcDbEntity
  8
LAY-1
  6
CONTINUOUS
 62
     1
100
AcDbLine
 10
277.39979983646
 20
210.0000000000001
 30
0.0
 11
277.39979983646
 21
197.999988
 31
0.0
  0
LINE
  5
1A6
330
1F
100
AcDbEntity
  8
LAY-1
  6
CONTINUOUS
 62
     1
100
AcDbLine
 10
291.23479083646
 20
210.0
 30
0.0
 11
291.23479083646
 21
197.999988
 31
0.0
  0
LINE
  5
1A7
330
1F
100
AcDbEntity
  8
LAY-1
  6
CONTINUOUS
 62
     3
100
AcDbLine
 10
292.31729483646
 20
197.999988
 30
0.0
 11
292.31729483646
 21
252.000012
 31
0.0
  0
LINE
  5
1A8
330
1F
100
AcDbEntity
  8
LAY-1
  6
CONTINUOUS
 62
     3
100
AcDbLine
 10
276.31729483646
 20
152.0
 30
0.0
 11
276.31729483646
 21
154.000012
 31
0.0
  0
LINE
  5
1A9
330
1F
100
AcDbEntity
  8
LAY-1
  6
CONTINUOUS
 62
     1
100
AcDbLine
 10
277.39979983646
 20
154.000012
 30
0.0
 11
277.39979983646
 21
150.917489
 31
0.0
  0
LINE
  5
1AA
330
1F
100
AcDbEntity
  8
LAY-1
  6
CONTINUOUS
 62
     1
100
AcDbLine
 10
291.23479083646
 20
154.000012
 30
0.0
 11
291.23479083646
 21
150.917489
 31
0.0
  0
LINE
  5
1AB
330
1F
100
AcDbEntity
  8
LAY-1
  6
CONTINUOUS
 62
     3
100
AcDbLine
 10
292.31729483646
 20
152.0
 30
0.0
 11
292.31729483646
 21
154.000012
 31
0.0
  0
LINE
  5
1AC
330
1F
100
AcDbEntity
  8
LAY-1
  6
CONTINUOUS
 62
     3
100
AcDbLine
 10
324.000015
 20
300.0
 30
0.0
 11
312.000015
 21
300.0
 31
0.0
  0
LINE
  5
1AD
330
1F
100
AcDbEntity
  8
LAY-1
  6
CONTINUOUS
 62
     3
100
AcDbLine
 10
310.000015
 20
298.0
 30
0.0
 11
312.000015
 21
300.0
 31
0.0
  0
LINE
  5
1AE
330
1F
100
AcDbEntity
  8
LAY-1
  6
CONTINUOUS
 62
     3
100
AcDbLine
 10
326.000015
 20
298.0
 30
0.0
 11
310.000015
 21
298.0
 31
0.0
  0
LINE
  5
1AF
330
1F
100
AcDbEntity
  8
LAY-1
  6
CONTINUOUS
 62
     3
100
AcDbLine
 10
326.000015
 20
298.0
 30
0.0
 11
324.000015
 21
300.0
 31
0.0
  0
LINE
  5
1B0
330
1F
100
AcDbEntity
  8
LAY-1
  6
CONTINUOUS
 62
     3
100
AcDbLine
 10
326.000015
 20
240.0
 30
0.0
 11
310.000015
 21
240.0
 31
0.0
  0
LINE
  5
1B1
330
1F
100
AcDbEntity
  8
LAY-1
  6
CONTINUOUS
 62
     1
100
AcDbLine
 10
310.000015
 20
236.999998
 30
0.0
 11
311.08252
 21
240.0
 31
0.0
  0
LINE
  5
1B2
330
1F
100
AcDbEntity
  8
LAY-1
  6
CONTINUOUS
 62
     1
100
AcDbLine
 10
326.000015
 20
236.999998
 30
0.0
 11
324.917511
 21
240.0
 31
0.0
  0
LINE
  5
1B3
330
1F
100
AcDbEntity
  8
LAY-1
  6
CONTINUOUS
 62
     3
100
AcDbLine
 10
324.000015
 20
150.0000000000001
 30
0.0
 11
312.000015
 21
150.0000000000001
 31
0.0
  0
LINE
  5
1B4
330
1F
100
AcDbEntity
  8
LAY-1
  6
CONTINUOUS
 62
     3
100
AcDbLine
 10
310.000015
 20
152.0000000000001
 30
0.0
 11
312.000015
 21
150.0000000000001
 31
0.0
  0
LINE
  5
1B5
330
1F
100
AcDbEntity
  8
LAY-1
  6
CONTINUOUS
 62
     3
100
AcDbLine
 10
326.000015
 20
152.0000000000001
 30
0.0
 11
310.000015
 21
152.0000000000001
 31
0.0
  0
LINE
  5
1B6
330
1F
100
AcDbEntity
  8
LAY-1
  6
CONTINUOUS
 62
     3
100
AcDbLine
 10
326.000015
 20
152.0000000000001
 30
0.0
 11
324.000015
 21
150.0000000000001
 31
0.0
  0
LINE
  5
1B7
330
1F
100
AcDbEntity
  8
LAY-1
  6
CONTINUOUS
 62
     3
100
AcDbLine
 10
326.000015
 20
210.0
 30
0.0
 11
310.000015
 21
210.0000000000001
 31
0.0
  0
LINE
  5
1B8
330
1F
100
AcDbEntity
  8
LAY-1
  6
CONTINUOUS
 62
     1
100
AcDbLine
 10
310.000015
 20
213.0000020000001
 30
0.0
 11
311.08252
 21
210.0000000000001
 31
0.0
  0
LINE
  5
1B9
330
1F
100
AcDbEntity
  8
LAY-1
  6
CONTINUOUS
 62
     1
100
AcDbLine
 10
326.000015
 20
213.000002
 30
0.0
 11
324.917511
 21
210.0
 31
0.0
  0
INSERT
  5
1BA
330
1F
100
AcDbEntity
  8
LAY-1
  6
CONTINUOUS
 62
     0
100
AcDbBlockReference
  2
HN16
 10
318.0
 20
283.0
 30
0.0
 50
270.0
  0
INSERT
  5
1BB
330
1F
100
AcDbEntity
  8
LAY-1
  6
CONTINUOUS
 62
     0
100
AcDbBlockReference
  2
HN16
 10
318.0
 20
185.0
 30
0.0
 50
270.0
  0
INSERT
  5
1BC
330
1F
100
AcDbEntity
  8
LAY-1
  6
CONTINUOUS
 62
     0
100
AcDbBlockReference
  2
HN16
 10
318.0
 20
265.0
 30
0.0
 50
90.0
  0
INSERT
  5
1BD
330
1F
100
AcDbEntity
  8
LAY-1
  6
CONTINUOUS
 62
     0
100
AcDbBlockReference
  2
HN16
 10
318.0
 20
167.0
 30
0.0
 50
90.0
  0
LINE
  5
1BE
330
1F
100
AcDbEntity
  8
LAY-1
  6
CONTINUOUS
 62
     3
100
AcDbLine
 10
310.000015
 20
295.999988
 30
0.0
 11
310.000015
 21
298.0
 31
0.0
  0
LINE
  5
1BF
330
1F
100
AcDbEntity
  8
LAY-1
  6
CONTINUOUS
 62
     1
100
AcDbLine
 10
311.08252
 20
295.999988
 30
0.0
 11
311.08252
 21
299.082511
 31
0.0
  0
LINE
  5
1C0
330
1F
100
AcDbEntity
  8
LAY-1
  6
CONTINUOUS
 62
     1
100
AcDbLine
 10
324.917511
 20
295.999988
 30
0.0
 11
324.917511
 21
299.082511
 31
0.0
  0
LINE
  5
1C1
330
1F
100
AcDbEntity
  8
LAY-1
  6
CONTINUOUS
 62
     3
100
AcDbLine
 10
326.000015
 20
295.999988
 30
0.0
 11
326.000015
 21
298.0
 31
0.0
  0
LINE
  5
1C2
330
1F
100
AcDbEntity
  8
LAY-1
  6
CONTINUOUS
 62
     1
100
AcDbLine
 10
311.08252
 20
240.0
 30
0.0
 11
311.08252
 21
252.000012
 31
0.0
  0
LINE
  5
1C3
330
1F
100
AcDbEntity
  8
LAY-1
  6
CONTINUOUS
 62
     1
100
AcDbLine
 10
324.917511
 20
240.0
 30
0.0
 11
324.917511
 21
252.000012
 31
0.0
  0
LINE
  5
1C4
330
1F
100
AcDbEntity
  8
LAY-1
  6
CONTINUOUS
 62
     3
100
AcDbLine
 10
310.000015
 20
197.999988
 30
0.0
 11
310.000015
 21
252.000012
 31
0.0
  0
LINE
  5
1C5
330
1F
100
AcDbEntity
  8
LAY-1
  6
CONTINUOUS
 62
     1
100
AcDbLine
 10
311.08252
 20
210.0000000000001
 30
0.0
 11
311.08252
 21
197.999988
 31
0.0
  0
LINE
  5
1C6
330
1F
100
AcDbEntity
  8
LAY-1
  6
CONTINUOUS
 62
     1
100
AcDbLine
 10
324.917511
 20
210.0
 30
0.0
 11
324.917511
 21
197.999988
 31
0.0
  0
LINE
  5
1C7
330
1F
100
AcDbEntity
  8
LAY-1
  6
CONTINUOUS
 62
     3
100
AcDbLine
 10
326.000015
 20
197.999988
 30
0.0
 11
326.000015
 21
252.000012
 31
0.0
  0
LINE
  5
1C8
330
1F
100
AcDbEntity
  8
LAY-1
  6
CONTINUOUS
 62
     3
100
AcDbLine
 10
310.000015
 20
152.0
 30
0.0
 11
310.000015
 21
154.000012
 31
0.0
  0
LINE
  5
1C9
330
1F
100
AcDbEntity
  8
LAY-1
  6
CONTINUOUS
 62
     1
100
AcDbLine
 10
311.08252
 20
154.000012
 30
0.0
 11
311.08252
 21
150.917489
 31
0.0
  0
LINE
  5
1CA
330
1F
100
AcDbEntity
  8
LAY-1
  6
CONTINUOUS
 62
     1
100
AcDbLine
 10
324.917511
 20
154.000012
 30
0.0
 11
324.917511
 21
150.917489
 31
0.0
  0
LINE
  5
1CB
330
1F
100
AcDbEntity
  8
LAY-1
  6
CONTINUOUS
 62
     3
100
AcDbLine
 10
326.000015
 20
152.0
 30
0.0
 11
326.000015
 21
154.000012
 31
0.0
  0
LINE
  5
1CC
330
1F
100
AcDbEntity
  8
LAY-1
  6
CONTINUOUS
 62
     3
100
AcDbLine
 10
120.4000000000001
 20
300.0
 30
0.0
 11
120.4
 21
336.9999999999981
 31
0.0
  0
LINE
  5
1CD
330
1F
100
AcDbEntity
  8
LAY-1
  6
CONTINUOUS
 62
     3
100
AcDbLine
 10
285.5999999999998
 20
300.0
 30
0.0
 11
285.5999999999998
 21
336.999999999998
 31
0.0
  0
LINE
  5
1CE
330
1F
100
AcDbEntity
  8
LAY-1
  6
CONTINUOUS
 62
     3
100
AcDbLine
 10
120.4000000000001
 20
150.0000000000001
 30
0.0
 11
120.4
 21
113.000000000002
 31
0.0
  0
LINE
  5
1CF
330
1F
100
AcDbEntity
  8
LAY-1
  6
CONTINUOUS
 62
     3
100
AcDbLine
 10
216.85646046463
 20
289.0
 30
0.0
 11
270.46071183646
 21
289.0
 31
0.0
  0
LINE
  5
1D0
330
1F
100
AcDbEntity
  8
LAY-1
  6
CONTINUOUS
 62
     3
100
AcDbLine
 10
216.856568
 20
161.0
 30
0.0
 11
270.46081937183
 21
161.0
 31
0.0
  0
LINE
  5
1D1
330
1F
100
AcDbEntity
  8
LAY-1
  6
CONTINUOUS
 62
     3
100
AcDbLine
 10
135.53919516354
 20
289.0000000000001
 30
0.0
 11
189.143432
 21
289.0000000000001
 31
0.0
  0
LINE
  5
1D2
330
1F
100
AcDbEntity
  8
LAY-1
  6
CONTINUOUS
 62
     3
100
AcDbLine
 10
135.53928816354
 20
161.0
 30
0.0
 11
189.14353953537
 21
161.0
 31
0.0
  0
LINE
  5
1D3
330
1F
100
AcDbEntity
  8
LAY-1
  6
CONTINUOUS
 62
     3
100
AcDbLine
 10
285.5999999999998
 20
150.0
 30
0.0
 11
285.5999999999998
 21
113.000000000002
 31
0.0
  0
LINE
  5
1D4
330
1F
100
AcDbEntity
  8
LAY-1
  6
EXLTYPE2
 62
     1
100
AcDbLine
 10
121.68272016354
 20
143.4
 30
0.0
 11
121.68272016354
 21
308.4
 31
0.0
  0
LINE
  5
1D5
330
1F
100
AcDbEntity
  8
LAY-1
  6
EXLTYPE2
 62
     1
100
AcDbLine
 10
284.3172798364599
 20
143.4
 30
0.0
 11
284.3172798364599
 21
308.4
 31
0.0
  0
LINE
  5
1D6
330
1F
100
AcDbEntity
  8
LAY-1
  6
EXLTYPE0
 62
     1
100
AcDbLine
 10
318.0
 20
143.4
 30
0.0
 11
318.0
 21
308.4
 31
0.0
  0
LINE
  5
1D7
330
1F
100
AcDbEntity
  8
LAY-1
  6
CONTINUOUS
 62
     3
100
AcDbLine
 10
292.9999999999999
 20
197.999988
 30
0.0
 11
292.9999999999999
 21
252.000012
 31
0.0
  0
LINE
  5
1D8
330
1F
100
AcDbEntity
  8
LAY-1
  6
CONTINUOUS
 62
     3
100
AcDbLine
 10
112.9999999999999
 20
197.999988
 30
0.0
 11
112.9999999999999
 21
252.000012
 31
0.0
  0
LINE
  5
1D9
330
1F
100
AcDbEntity
  8
LAY-1
  6
EXLTYPE1
 62
     1
100
AcDbLine
 10
113.0
 20
265.0000000000001
 30
0.0
 11
113.0
 21
252.000012
 31
0.0
  0
LINE
  5
1DA
330
1F
100
AcDbEntity
  8
LAY-1
  6
EXLTYPE1
 62
     1
100
AcDbLine
 10
113.0
 20
185.0
 30
0.0
 11
113.0
 21
197.999988
 31
0.0
  0
LINE
  5
1DB
330
1F
100
AcDbEntity
  8
LAY-1
  6
EXLTYPE1
 62
     1
100
AcDbLine
 10
293.0
 20
265.0
 30
0.0
 11
293.0
 21
252.000012
 31
0.0
  0
LINE
  5
1DC
330
1F
100
AcDbEntity
  8
LAY-1
  6
EXLTYPE1
 62
     1
100
AcDbLine
 10
293.0
 20
185.0000000000001
 30
0.0
 11
293.0
 21
197.999988
 31
0.0
  0
TEXT
  5
1DD
330
1F
100
AcDbEntity
  8
LAY-1
  6
CONTINUOUS
 62
     3
100
AcDbText
 10
417.2
 20
583.3656249999999
 30
0.0
 40
6.149794801641587
  1
ＦＧ－３シリーズ
  7
EXCADTTF1
 72
     5
 11
489.2
 21
583.3656249999999
 31
0.0
100
AcDbText
  0
ENDSEC
  0
SECTION
  2
OBJECTS
  0
DICTIONARY
  5
C
330
0
100
AcDbDictionary
  3
ACAD_GROUP
350
D
  3
ACAD_LAYOUT
350
1A
  3
ACAD_MATERIAL
350
43
  3
ACAD_MLEADERSTYLE
350
6B
  3
ACAD_MLINESTYLE
350
17
  3
ACAD_PLOTSETTINGS
350
19
  3
ACAD_SCALELIST
350
47
  3
ACAD_VISUALSTYLE
350
2A
  3
ACDBHEADERROUNDTRIPXREC
350
1DE
  3
ACDBVARIABLEDICTIONARY
350
1FF
  0
DICTIONARY
  5
208
330
8
100
AcDbDictionary
280
     1
  3
ACAD_XREC_ROUNDTRIP
360
209
  0
DICTIONARY
  5
D
102
{ACAD_REACTORS
330
C
102
}
330
C
100
AcDbDictionary
  0
DICTIONARY
  5
1A
102
{ACAD_REACTORS
330
C
102
}
330
C
100
AcDbDictionary
  0
DICTIONARY
  5
43
102
{ACAD_REACTORS
330
C
102
}
330
C
100
AcDbDictionary
  3
BYBLOCK
350
45
  3
BYLAYER
350
44
  3
GLOBAL
350
46
  0
DICTIONARY
  5
6B
102
{ACAD_REACTORS
330
C
102
}
330
C
100
AcDbDictionary
  3
STANDARD
350
6C
  0
DICTIONARY
  5
17
102
{ACAD_REACTORS
330
C
102
}
330
C
100
AcDbDictionary
  3
STANDARD
350
18
  0
DICTIONARY
  5
19
102
{ACAD_REACTORS
330
C
102
}
330
C
100
AcDbDictionary
  0
DICTIONARY
  5
47
102
{ACAD_REACTORS
330
C
102
}
330
C
100
AcDbDictionary
  3
A0
350
48
  3
A1
350
49
  3
A2
350
4A
  3
A3
350
4B
  3
A4
350
4C
  3
A5
350
4D
  3
A6
350
4E
  3
A7
350
4F
  3
A8
350
50
  3
A9
350
51
  3
B0
350
52
  3
B1
350
53
  3
B2
350
54
  3
B3
350
55
  3
B4
350
56
  3
B5
350
57
  3
B6
350
58
  3
B7
350
59
  3
B8
350
5A
  3
B9
350
5B
  3
C0
350
5C
  3
C1
350
5D
  3
C2
350
5E
  3
C3
350
5F
  3
C4
350
60
  3
C5
350
61
  3
C6
350
62
  3
C7
350
63
  3
C8
350
64
  3
C9
350
65
  3
D0
350
66
  3
D1
350
67
  3
D2
350
68
  0
DICTIONARY
  5
2A
102
{ACAD_REACTORS
330
C
102
}
330
C
100
AcDbDictionary
  3
2DWIREFRAME
350
2F
  3
BASIC
350
32
  3
BRIGHTEN
350
36
  3
COLORCHANGE
350
3A
  3
CONCEPTUAL
350
34
  3
DIM
350
35
  3
EDGECOLOROFF
350
3D
  3
FACEPATTERN
350
39
  3
FLAT
350
2B
  3
FLATWITHEDGES
350
2C
  3
GOURAUD
350
2D
  3
GOURAUDWITHEDGES
350
2E
  3
HIDDEN
350
31
  3
JITTEROFF
350
3B
  3
LINEPATTERN
350
38
  3
OVERHANGOFF
350
3C
  3
REALISTIC
350
33
  3
SHADED
350
42
  3
SHADED_WITH_EDGES
350
41
  3
SHADES_OF_GRAY
350
3E
  3
SKETCHY
350
3F
  3
THICKEN
350
37
  3
WIREFRAME
350
30
  3
X-RAY
350
40
  0
DICTIONARY
  5
1DE
102
{ACAD_REACTORS
330
C
102
}
330
C
100
AcDbDictionary
  3
CEPSNID
350
1E8
  3
CEPSNTYPE
350
1E7
  3
DIMSTYLEDATA
350
1FE
  3
FINGERPRINTGUID
350
1E9
  3
HYPERLINKBASE
350
1E1
  3
INSUNITS
350
1E6
  3
LAYOUTDICT
350
1E3
  3
LWETCUNION
350
1E5
  3
PLOTSETDICT
350
1E4
  3
PSVPSCALE
350
1EB
  3
PUCSBASE
350
1EE
  3
PUCSORGBACK
350
1F4
  3
PUCSORGBOTTOM
350
1F0
  3
PUCSORGFRONT
350
1F3
  3
PUCSORGLEFT
350
1F1
  3
PUCSORGRIGHT
350
1F2
  3
PUCSORGTOP
350
1EF
  3
PUCSORTHOREF
350
1EC
  3
PUCSORTHOVIEW
350
1ED
  3
STYLESHEET
350
1E2
  3
TSTACKALIGN
350
1DF
  3
TSTACKSIZE
350
1E0
  3
UCSBASE
350
1F7
  3
UCSORGBACK
350
1FD
  3
UCSORGBOTTOM
350
1F9
  3
UCSORGFRONT
350
1FC
  3
UCSORGLEFT
350
1FA
  3
UCSORGRIGHT
350
1FB
  3
UCSORGTOP
350
1F8
  3
UCSORTHOREF
350
1F5
  3
UCSORTHOVIEW
350
1F6
  3
VERSIONGUID
350
1EA
  0
DICTIONARY
  5
1FF
102
{ACAD_REACTORS
330
C
102
}
330
C
100
AcDbDictionary
  3
CANNOSCALE
350
20A
  3
CMLEADERSTYLE
350
201
  3
CTABLESTYLE
350
200
  3
DIMASSOC
350
206
  3
HIDETEXT
350
207
  3
MSLTSCALE
350
20B
  3
PSOLHEIGHT
350
203
  3
PSOLWIDTH
350
202
  0
XRECORD
  5
209
102
{ACAD_REACTORS
330
208
102
}
330
208
100
AcDbXrecord
102
VTR_0.000_0.000_1.000_1.000_VISUALSTYLE
340
2F
102
VTR_0.000_0.000_1.000_1.000_GRIDDISPLAY
 70
     3
102
VTR_0.000_0.000_1.000_1.000_GRIDMAJOR
 70
     5
102
VTR_0.000_0.000_1.000_1.000_DEFAULTLIGHTING
280
     1
102
VTR_0.000_0.000_1.000_1.000_DEFAULTLIGHTINGTYPE
 70
     1
102
VTR_0.000_0.000_1.000_1.000_BRIGHTNESS
141
0.0
102
VTR_0.000_0.000_1.000_1.000_CONTRAST
142
0.0
  0
MATERIAL
  5
45
102
{ACAD_REACTORS
330
43
102
}
102
{ACAD_XDICTIONARY
360
20E
102
}
330
43
100
AcDbMaterial
  1
BYBLOCK
  0
MATERIAL
  5
44
102
{ACAD_REACTORS
330
43
102
}
102
{ACAD_XDICTIONARY
360
20C
102
}
330
43
100
AcDbMaterial
  1
BYLAYER
  0
MATERIAL
  5
46
102
{ACAD_REACTORS
330
43
102
}
102
{ACAD_XDICTIONARY
360
210
102
}
330
43
100
AcDbMaterial
  1
GLOBAL
  0
ACAD_PROXY_OBJECT
  5
6C
102
{ACAD_REACTORS
330
6B
102
}
330
6B
100
AcDbProxyObject
 90
      499
 91
      505
 93
      610
310
40901902A4063FBFFFFFE0000000000000020400000000000020404214DD185B99185C990000000000000104090141901A00000000000004100000000000000041025764000000000000039000
340
14
340
0
340
11
340
0
 94
        0
1001
ACAD_MLEADERVER
1070
     2
  0
MLINESTYLE
  5
18
102
{ACAD_REACTORS
330
17
102
}
330
17
100
AcDbMlineStyle
  2
Standard
 70
     0
  3

 62
   256
 51
90.0
 52
90.0
 71
     2
 49
0.5
 62
   256
  6
BYLAYER
 49
-0.5
 62
   256
  6
BYLAYER
  0
ACAD_PROXY_OBJECT
  5
48
102
{ACAD_REACTORS
330
47
102
}
330
47
100
AcDbProxyObject
 90
      499
 91
      503
 93
       41
310
903313A31580
  0
ACAD_PROXY_OBJECT
  5
49
102
{ACAD_REACTORS
330
47
102
}
330
47
100
AcDbProxyObject
 90
      499
 91
      503
 93
      105
310
903313A324000000000000004000
  0
ACAD_PROXY_OBJECT
  5
4A
102
{ACAD_REACTORS
330
47
102
}
330
47
100
AcDbProxyObject
 90
      499
 91
      503
 93
      105
310
903313A344000000000000104000
  0
ACAD_PROXY_OBJECT
  5
4B
102
{ACAD_REACTORS
330
47
102
}
330
47
100
AcDbProxyObject
 90
      499
 91
      503
 93
      105
310
903313A354000000000000144000
  0
ACAD_PROXY_OBJECT
  5
4C
102
{ACAD_REACTORS
330
47
102
}
330
47
100
AcDbProxyObject
 90
      499
 91
      503
 93
      105
310
903313A384000000000000204000
  0
ACAD_PROXY_OBJECT
  5
4D
102
{ACAD_REACTORS
330
47
102
}
330
47
100
AcDbProxyObject
 90
      499
 91
      503
 93
      113
310
904313A31304000000000000244000
  0
ACAD_PROXY_OBJECT
  5
4E
102
{ACAD_REACTORS
330
47
102
}
330
47
100
AcDbProxyObject
 90
      499
 91
      503
 93
      113
310
904313A31364000000000000304000
  0
ACAD_PROXY_OBJECT
  5
4F
102
{ACAD_REACTORS
330
47
102
}
330
47
100
AcDbProxyObject
 90
      499
 91
      503
 93
      113
310
904313A32304000000000000344000
  0
ACAD_PROXY_OBJECT
  5
50
102
{ACAD_REACTORS
330
47
102
}
330
47
100
AcDbProxyObject
 90
      499
 91
      503
 93
      113
310
904313A333040000000000003E4000
  0
ACAD_PROXY_OBJECT
  5
51
102
{ACAD_REACTORS
330
47
102
}
330
47
100
AcDbProxyObject
 90
      499
 91
      503
 93
      113
310
904313A34304000000000000444000
  0
ACAD_PROXY_OBJECT
  5
52
102
{ACAD_REACTORS
330
47
102
}
330
47
100
AcDbProxyObject
 90
      499
 91
      503
 93
      113
310
904313A35304000000000000494000
  0
ACAD_PROXY_OBJECT
  5
53
102
{ACAD_REACTORS
330
47
102
}
330
47
100
AcDbProxyObject
 90
      499
 91
      503
 93
      121
310
905313A3130304000000000000594000
  0
ACAD_PROXY_OBJECT
  5
54
102
{ACAD_REACTORS
330
47
102
}
330
47
100
AcDbProxyObject
 90
      499
 91
      503
 93
      105
310
903323A310000000000000010100
  0
ACAD_PROXY_OBJECT
  5
55
102
{ACAD_REACTORS
330
47
102
}
330
47
100
AcDbProxyObject
 90
      499
 91
      503
 93
      105
310
903343A310000000000000410100
  0
ACAD_PROXY_OBJECT
  5
56
102
{ACAD_REACTORS
330
47
102
}
330
47
100
AcDbProxyObject
 90
      499
 91
      503
 93
      105
310
903383A310000000000000810100
  0
ACAD_PROXY_OBJECT
  5
57
102
{ACAD_REACTORS
330
47
102
}
330
47
100
AcDbProxyObject
 90
      499
 91
      503
 93
      113
310
90431303A310000000000000910100
  0
ACAD_PROXY_OBJECT
  5
58
102
{ACAD_REACTORS
330
47
102
}
330
47
100
AcDbProxyObject
 90
      499
 91
      503
 93
      121
310
9053130303A310000000000001650100
  0
ACAD_PROXY_OBJECT
  5
59
102
{ACAD_REACTORS
330
47
102
}
330
47
100
AcDbProxyObject
 90
      499
 91
      503
 93
      257
310
90E312F31323822203D2031272D3022000000000000200FC000000000000284000
  0
ACAD_PROXY_OBJECT
  5
5A
102
{ACAD_REACTORS
330
47
102
}
330
47
100
AcDbProxyObject
 90
      499
 91
      503
 93
      249
310
90D312F363422203D2031272D3022000000000000240FC000000000000284000
  0
ACAD_PROXY_OBJECT
  5
5B
102
{ACAD_REACTORS
330
47
102
}
330
47
100
AcDbProxyObject
 90
      499
 91
      503
 93
      249
310
90D312F333222203D2031272D3022000000000000280FC000000000000284000
  0
ACAD_PROXY_OBJECT
  5
5C
102
{ACAD_REACTORS
330
47
102
}
330
47
100
AcDbProxyObject
 90
      499
 91
      503
 93
      249
310
90D312F313622203D2031272D30220000000000002C0FC000000000000284000
  0
ACAD_PROXY_OBJECT
  5
5D
102
{ACAD_REACTORS
330
47
102
}
330
47
100
AcDbProxyObject
 90
      499
 91
      503
 93
      249
310
90D332F333222203D2031272D30220000000000002E0FC000000000000284000
  0
ACAD_PROXY_OBJECT
  5
5E
102
{ACAD_REACTORS
330
47
102
}
330
47
100
AcDbProxyObject
 90
      499
 91
      503
 93
      241
310
90C312F3822203D2031272D3022000000000000300FC000000000000284000
  0
ACAD_PROXY_OBJECT
  5
5F
102
{ACAD_REACTORS
330
47
102
}
330
47
100
AcDbProxyObject
 90
      499
 91
      503
 93
      249
310
90D332F313622203D2031272D3022000000000000320FC000000000000284000
  0
ACAD_PROXY_OBJECT
  5
60
102
{ACAD_REACTORS
330
47
102
}
330
47
100
AcDbProxyObject
 90
      499
 91
      503
 93
      241
310
90C312F3422203D2031272D3022000000000000340FC000000000000284000
  0
ACAD_PROXY_OBJECT
  5
61
102
{ACAD_REACTORS
330
47
102
}
330
47
100
AcDbProxyObject
 90
      499
 91
      503
 93
      241
310
90C332F3822203D2031272D3022000000000000360FC000000000000284000
  0
ACAD_PROXY_OBJECT
  5
62
102
{ACAD_REACTORS
330
47
102
}
330
47
100
AcDbProxyObject
 90
      499
 91
      503
 93
      241
310
90C312F3222203D2031272D3022000000000000380FC000000000000284000
  0
ACAD_PROXY_OBJECT
  5
63
102
{ACAD_REACTORS
330
47
102
}
330
47
100
AcDbProxyObject
 90
      499
 91
      503
 93
      241
310
90C332F3422203D2031272D30220000000000003A0FC000000000000284000
  0
ACAD_PROXY_OBJECT
  5
64
102
{ACAD_REACTORS
330
47
102
}
330
47
100
AcDbProxyObject
 90
      499
 91
      503
 93
      161
310
90A3122203D2031272D30224000000000000284000
  0
ACAD_PROXY_OBJECT
  5
65
102
{ACAD_REACTORS
330
47
102
}
330
47
100
AcDbProxyObject
 90
      499
 91
      503
 93
      257
310
90E312D312F3222203D2031272D30220000000000003E0FC000000000000284000
  0
ACAD_PROXY_OBJECT
  5
66
102
{ACAD_REACTORS
330
47
102
}
330
47
100
AcDbProxyObject
 90
      499
 91
      503
 93
      225
310
90A3322203D2031272D302200000000000002100000000000000284000
  0
ACAD_PROXY_OBJECT
  5
67
102
{ACAD_REACTORS
330
47
102
}
330
47
100
AcDbProxyObject
 90
      499
 91
      503
 93
      225
310
90A3622203D2031272D302200000000000006100000000000000284000
  0
ACAD_PROXY_OBJECT
  5
68
102
{ACAD_REACTORS
330
47
102
}
330
47
100
AcDbProxyObject
 90
      499
 91
      503
 93
      249
310
90D31272D3022203D2031272D30220000000000000A100000000000000284000
  0
ACAD_PROXY_OBJECT
  5
2F
102
{ACAD_REACTORS
330
2A
102
}
330
2A
100
AcDbProxyObject
 90
      499
 91
      501
 93
      436
310
42CC9915DA5C99599C985B595049028333333333333E33F0000000000000F90107901411070040501600405405064090741402480A0340
1001
ACAD
1000
AcDbSavedByObjectVersion
1070
     0
  0
ACAD_PROXY_OBJECT
  5
32
102
{ACAD_REACTORS
330
2A
102
}
330
2A
100
AcDbProxyObject
 90
      499
 91
      501
 93
      388
310
4150985CDA58D07406404333333333333E33F0000000000000F90107A41107004050150841D405064090741402480A0350
1001
ACAD
1000
AcDbSavedByObjectVersion
1070
     0
  0
ACAD_PROXY_OBJECT
  5
36
102
{ACAD_REACTORS
330
2A
102
}
330
2A
100
AcDbProxyObject
 90
      499
 91
      501
 93
      428
310
42109C9A59DA1D195B90C409028333333333333E33F0000000000000F9010790141107004050150841D405064090741402480A029950
1001
ACAD
1000
AcDbSavedByObjectVersion
1070
     0
  0
ACAD_PROXY_OBJECT
  5
3A
102
{ACAD_REACTORS
330
2A
102
}
330
2A
100
AcDbProxyObject
 90
      499
 91
      501
 93
      452
310
42D0DBDB1BDC90DA185B99D95104090240C333333333333E33F0000000000000F90108901411070040501508421405064090741402480A0350
1001
ACAD
1000
AcDbSavedByObjectVersion
1070
     0
  0
ACAD_PROXY_OBJECT
  5
34
102
{ACAD_REACTORS
330
2A
102
}
330
2A
100
AcDbProxyObject
 90
      499
 91
      501
 93
      500
310
4290DBDB98D95C1D1D585B10940D028333333333333E33F0000000000000F90107902409070040501000000000018199010841D405064090740C02480A0340
1001
ACAD
1000
AcDbSavedByObjectVersion
1070
     0
  0
ACAD_PROXY_OBJECT
  5
35
102
{ACAD_REACTORS
330
2A
102
}
330
2A
100
AcDbProxyObject
 90
      499
 91
      501
 93
      412
310
40D11A5B50B409028333333333333E33F0000000000000F9010790141107004050150841D405064090741402480A02677FFFFFD0
1001
ACAD
1000
AcDbSavedByObjectVersion
1070
     0
  0
ACAD_PROXY_OBJECT
  5
3D
102
{ACAD_REACTORS
330
2A
102
}
330
2A
100
AcDbProxyObject
 90
      499
 91
      501
 93
      452
310
43115919D950DBDB1BDC93D999916409028333333333333E33F0000000000000F9010790141107004050150841D405064090741402480A0350
1001
ACAD
1000
AcDbSavedByObjectVersion
1070
     0
  0
ACAD_PROXY_OBJECT
  5
39
102
{ACAD_REACTORS
330
2A
102
}
330
2A
100
AcDbProxyObject
 90
      499
 91
      501
 93
      444
310
42D19858D95C185D1D195C9B90F409028333333333333E33F0000000000000F9010790141107004050150841D405064090741402480A0350
1001
ACAD
1000
AcDbSavedByObjectVersion
1070
     0
  0
ACAD_PROXY_OBJECT
  5
2B
102
{ACAD_REACTORS
330
2A
102
}
330
2A
100
AcDbProxyObject
 90
      499
 91
      501
 93
      380
310
41119B185D240901404333333333333E33F0000000000000F9010740A907004050150841D405064090741402480A1B50
1001
ACAD
1000
AcDbSavedByObjectVersion
1070
     0
  0
ACAD_PROXY_OBJECT
  5
2C
102
{ACAD_REACTORS
330
2A
102
}
330
2A
100
AcDbProxyObject
 90
      499
 91
      501
 93
      468
310
43519B185D15DA5D1A115919D95CD0140901404333333333333E33F0000000000000F90107409019070040501600405405064090741402480A1B50
1001
ACAD
1000
AcDbSavedByObjectVersion
1070
     0
  0
ACAD_PROXY_OBJECT
  5
2D
102
{ACAD_REACTORS
330
2A
102
}
330
2A
100
AcDbProxyObject
 90
      499
 91
      501
 93
      404
310
41D1DBDD5C985D5910240902404333333333333E33F0000000000000F9010740A9070040501641D405064090741402480A1B50
1001
ACAD
1000
AcDbSavedByObjectVersion
1070
     0
  0
ACAD_PROXY_OBJECT
  5
2E
102
{ACAD_REACTORS
330
2A
102
}
330
2A
100
AcDbProxyObject
 90
      499
 91
      501
 93
      492
310
4411DBDD5C985D5915DA5D1A115919D95CD0340902404333333333333E33F0000000000000F90107409019070040501600405405064090741402480A1B50
1001
ACAD
1000
AcDbSavedByObjectVersion
1070
     0
  0
ACAD_PROXY_OBJECT
  5
31
102
{ACAD_REACTORS
330
2A
102
}
330
2A
100
AcDbProxyObject
 90
      499
 91
      501
 93
      476
310
41921A5919195B90640502408333333333333E33F0000000000000F901079024090700405020000000000001110200405405064090740C02480A0340
1001
ACAD
1000
AcDbSavedByObjectVersion
1070
     0
  0
ACAD_PROXY_OBJECT
  5
3B
102
{ACAD_REACTORS
330
2A
102
}
330
2A
100
AcDbProxyObject
 90
      499
 91
      501
 93
      428
310
42529A5D1D195C93D999914409028333333333333E33F0000000000000F9010790141107004050150A41D405064090741402480A0350
1001
ACAD
1000
AcDbSavedByObjectVersion
1070
     0
  0
ACAD_PROXY_OBJECT
  5
38
102
{ACAD_REACTORS
330
2A
102
}
330
2A
100
AcDbProxyObject
 90
      499
 91
      501
 93
      444
310
42D31A5B995C185D1D195C9B90E409028333333333333E33F0000000000000F9010790141107004050750841D405064090741402483A0350
1001
ACAD
1000
AcDbSavedByObjectVersion
1070
     0
  0
ACAD_PROXY_OBJECT
  5
3C
102
{ACAD_REACTORS
330
2A
102
}
330
2A
100
AcDbProxyObject
 90
      499
 91
      501
 93
      444
310
42D3DD995C9A185B99D3D999915409028333333333333E33F0000000000000F9010790141107004050150941D405064090741402480A0350
1001
ACAD
1000
AcDbSavedByObjectVersion
1070
     0
  0
ACAD_PROXY_OBJECT
  5
33
102
{ACAD_REACTORS
330
2A
102
}
330
2A
100
AcDbProxyObject
 90
      499
 91
      501
 93
      428
310
425499585B1A5CDD1A58D08409038333333333333E33F0000000000000F9010740A907004050150800405405064090740C02480A1B40
1001
ACAD
1000
AcDbSavedByObjectVersion
1070
     0
  0
ACAD_PROXY_OBJECT
  5
42
102
{ACAD_REACTORS
330
2A
102
}
330
2A
100
AcDbProxyObject
 90
      499
 91
      501
 93
      420
310
4194DA1859195911B40902404333333333333E33F0000000000000F9010740A41107004050150800405405064090840C02480A0B40
1001
ACAD
1000
AcDbSavedByObjectVersion
1070
     0
  0
ACAD_PROXY_OBJECT
  5
41
102
{ACAD_REACTORS
330
2A
102
}
330
2A
100
AcDbProxyObject
 90
      499
 91
      501
 93
      516
310
4454DA18591959081DDA5D1A08195919D95CD1A40902404333333333333E33F0000000000000F901074090142907004050250800405405064090740C02480A0B40
1001
ACAD
1000
AcDbSavedByObjectVersion
1070
     0
  0
ACAD_PROXY_OBJECT
  5
3E
102
{ACAD_REACTORS
330
2A
102
}
330
2A
100
AcDbProxyObject
 90
      499
 91
      501
 93
      532
310
4394DA1859195CC81BD98811DC985E5174090240C333333333333E33F0000000000000F901079024090741D01000000000000111010841D405064090740C02480A0340
1001
ACAD
1000
AcDbSavedByObjectVersion
1070
     0
  0
ACAD_PROXY_OBJECT
  5
3F
102
{ACAD_REACTORS
330
2A
102
}
330
2A
100
AcDbProxyObject
 90
      499
 91
      501
 93
      476
310
41D4DAD95D18DA1E51840502408333333333333E33F0000000000000F901079024090741D01000000000000111010B41D405064090741802480A0340
1001
ACAD
1000
AcDbSavedByObjectVersion
1070
     0
  0
ACAD_PROXY_OBJECT
  5
37
102
{ACAD_REACTORS
330
2A
102
}
330
2A
100
AcDbProxyObject
 90
      499
 91
      501
 93
      412
310
41D51A1A58DAD95B90D409028333333333333E33F0000000000000F9010790141107004050150C41D405064090741402480A0350
1001
ACAD
1000
AcDbSavedByObjectVersion
1070
     0
  0
ACAD_PROXY_OBJECT
  5
30
102
{ACAD_REACTORS
330
2A
102
}
330
2A
100
AcDbProxyObject
 90
      499
 91
      501
 93
      420
310
4255DA5C99599C985B595059028333333333333E33F0000000000000F90107901411070040501600405405064090740C02480A0340
1001
ACAD
1000
AcDbSavedByObjectVersion
1070
     0
  0
ACAD_PROXY_OBJECT
  5
40
102
{ACAD_REACTORS
330
2A
102
}
330
2A
100
AcDbProxyObject
 90
      499
 91
      501
 93
      404
310
41560B54985E51940902404000000000000E03F0000000000000F9010740501907004050150841D405064090740C02480A1B40
1001
ACAD
1000
AcDbSavedByObjectVersion
1070
     0
  0
XRECORD
  5
1E8
102
{ACAD_REACTORS
330
1DE
102
}
330
1DE
100
AcDbXrecord
340
0
  0
XRECORD
  5
1E7
102
{ACAD_REACTORS
330
1DE
102
}
330
1DE
100
AcDbXrecord
 90
        0
  0
XRECORD
  5
1FE
102
{ACAD_REACTORS
330
1DE
102
}
330
1DE
100
AcDbXrecord
1000
DSTYLE
1002
{
1070
   340
340
11
1002
}
  0
XRECORD
  5
1E9
102
{ACAD_REACTORS
330
1DE
102
}
330
1DE
100
AcDbXrecord
  1
{107341AB-1F2B-4AAB-9C18-13A81A7074B5}
  0
XRECORD
  5
1E1
102
{ACAD_REACTORS
330
1DE
102
}
330
1DE
100
AcDbXrecord
  1

  0
XRECORD
  5
1E6
102
{ACAD_REACTORS
330
1DE
102
}
330
1DE
100
AcDbXrecord
 90
        4
  0
XRECORD
  5
1E3
102
{ACAD_REACTORS
330
1DE
102
}
330
1DE
100
AcDbXrecord
340
1A
  0
XRECORD
  5
1E5
102
{ACAD_REACTORS
330
1DE
102
}
330
1DE
100
AcDbXrecord
 90
    10781
  0
XRECORD
  5
1E4
102
{ACAD_REACTORS
330
1DE
102
}
330
1DE
100
AcDbXrecord
340
19
  0
XRECORD
  5
1EB
102
{ACAD_REACTORS
330
1DE
102
}
330
1DE
100
AcDbXrecord
 40
0.0
  0
XRECORD
  5
1EE
102
{ACAD_REACTORS
330
1DE
102
}
330
1DE
100
AcDbXrecord
340
0
  0
XRECORD
  5
1F4
102
{ACAD_REACTORS
330
1DE
102
}
330
1DE
100
AcDbXrecord
 10
0.0
 20
0.0
 30
0.0
  0
XRECORD
  5
1F0
102
{ACAD_REACTORS
330
1DE
102
}
330
1DE
100
AcDbXrecord
 10
0.0
 20
0.0
 30
0.0
  0
XRECORD
  5
1F3
102
{ACAD_REACTORS
330
1DE
102
}
330
1DE
100
AcDbXrecord
 10
0.0
 20
0.0
 30
0.0
  0
XRECORD
  5
1F1
102
{ACAD_REACTORS
330
1DE
102
}
330
1DE
100
AcDbXrecord
 10
0.0
 20
0.0
 30
0.0
  0
XRECORD
  5
1F2
102
{ACAD_REACTORS
330
1DE
102
}
330
1DE
100
AcDbXrecord
 10
0.0
 20
0.0
 30
0.0
  0
XRECORD
  5
1EF
102
{ACAD_REACTORS
330
1DE
102
}
330
1DE
100
AcDbXrecord
 10
0.0
 20
0.0
 30
0.0
  0
XRECORD
  5
1EC
102
{ACAD_REACTORS
330
1DE
102
}
330
1DE
100
AcDbXrecord
340
0
  0
XRECORD
  5
1ED
102
{ACAD_REACTORS
330
1DE
102
}
330
1DE
100
AcDbXrecord
 70
     0
  0
XRECORD
  5
1E2
102
{ACAD_REACTORS
330
1DE
102
}
330
1DE
100
AcDbXrecord
  1

  0
XRECORD
  5
1DF
102
{ACAD_REACTORS
330
1DE
102
}
330
1DE
100
AcDbXrecord
 90
        1
  0
XRECORD
  5
1E0
102
{ACAD_REACTORS
330
1DE
102
}
330
1DE
100
AcDbXrecord
 90
       70
  0
XRECORD
  5
1F7
102
{ACAD_REACTORS
330
1DE
102
}
330
1DE
100
AcDbXrecord
340
0
  0
XRECORD
  5
1FD
102
{ACAD_REACTORS
330
1DE
102
}
330
1DE
100
AcDbXrecord
 10
0.0
 20
0.0
 30
0.0
  0
XRECORD
  5
1F9
102
{ACAD_REACTORS
330
1DE
102
}
330
1DE
100
AcDbXrecord
 10
0.0
 20
0.0
 30
0.0
  0
XRECORD
  5
1FC
102
{ACAD_REACTORS
330
1DE
102
}
330
1DE
100
AcDbXrecord
 10
0.0
 20
0.0
 30
0.0
  0
XRECORD
  5
1FA
102
{ACAD_REACTORS
330
1DE
102
}
330
1DE
100
AcDbXrecord
 10
0.0
 20
0.0
 30
0.0
  0
XRECORD
  5
1FB
102
{ACAD_REACTORS
330
1DE
102
}
330
1DE
100
AcDbXrecord
 10
0.0
 20
0.0
 30
0.0
  0
XRECORD
  5
1F8
102
{ACAD_REACTORS
330
1DE
102
}
330
1DE
100
AcDbXrecord
 10
0.0
 20
0.0
 30
0.0
  0
XRECORD
  5
1F5
102
{ACAD_REACTORS
330
1DE
102
}
330
1DE
100
AcDbXrecord
340
0
  0
XRECORD
  5
1F6
102
{ACAD_REACTORS
330
1DE
102
}
330
1DE
100
AcDbXrecord
 70
     0
  0
XRECORD
  5
1EA
102
{ACAD_REACTORS
330
1DE
102
}
330
1DE
100
AcDbXrecord
  1
{FAEB1C32-E019-11D5-929B-00C0DF256EC4}
  0
DICTIONARYVAR
  5
20A
102
{ACAD_REACTORS
330
1FF
102
}
330
1FF
100
DictionaryVariables
280
     0
  1
1:1
  0
DICTIONARYVAR
  5
201
102
{ACAD_REACTORS
330
1FF
102
}
330
1FF
100
DictionaryVariables
280
     0
  1
Standard
  0
DICTIONARYVAR
  5
200
102
{ACAD_REACTORS
330
1FF
102
}
330
1FF
100
DictionaryVariables
280
     0
  1
Standard
  0
DICTIONARYVAR
  5
206
102
{ACAD_REACTORS
330
1FF
102
}
330
1FF
100
DictionaryVariables
280
     0
  1
2
  0
DICTIONARYVAR
  5
207
102
{ACAD_REACTORS
330
1FF
102
}
330
1FF
100
DictionaryVariables
280
     0
  1
1
  0
DICTIONARYVAR
  5
20B
102
{ACAD_REACTORS
330
1FF
102
}
330
1FF
100
DictionaryVariables
280
     0
  1
1
  0
DICTIONARYVAR
  5
203
102
{ACAD_REACTORS
330
1FF
102
}
330
1FF
100
DictionaryVariables
280
     0
  1
80.000000
  0
DICTIONARYVAR
  5
202
102
{ACAD_REACTORS
330
1FF
102
}
330
1FF
100
DictionaryVariables
280
     0
  1
5.000000
  0
DICTIONARY
  5
20E
330
45
100
AcDbDictionary
280
     1
  3
ACAD_XREC_ROUNDTRIP
360
20F
  0
DICTIONARY
  5
20C
330
44
100
AcDbDictionary
280
     1
  3
ACAD_XREC_ROUNDTRIP
360
20D
  0
DICTIONARY
  5
210
330
46
100
AcDbDictionary
280
     1
  3
ACAD_XREC_ROUNDTRIP
360
211
  0
XRECORD
  5
20F
102
{ACAD_REACTORS
330
20E
102
}
330
20E
100
AcDbXrecord
102
MATERIAL
148
0.0
149
0.0
149
0.0
 93
        0
 94
      127
282
     0
 72
     1
 77
     1
171
     1
175
     1
179
     1
273
     0
  0
XRECORD
  5
20D
102
{ACAD_REACTORS
330
20C
102
}
330
20C
100
AcDbXrecord
102
MATERIAL
148
0.0
149
0.0
149
0.0
 93
        0
 94
      127
282
     0
 72
     1
 77
     1
171
     1
175
     1
179
     1
273
     0
  0
XRECORD
  5
211
102
{ACAD_REACTORS
330
210
102
}
330
210
100
AcDbXrecord
102
MATERIAL
148
0.0
149
0.0
149
0.0
 93
        0
 94
      127
282
     0
 72
     1
 77
     1
171
     1
175
     1
179
     1
273
     0
  0
ENDSEC
  0
EOF
