  0
SECTION
  2
HEADER
  9
$ACADVER
  1
AC1014
  9
$ACADMAINTVER
 70
     9
  9
$DWGCODEPAGE
  3
ANSI_932
  9
$INSBASE
 10
0.0
 20
0.0
 30
0.0
  9
$EXTMIN
 10
73.0
 20
30.0
 30
0.0
  9
$EXTMAX
 10
733.0
 20
561.0
 30
0.0
  9
$LIMMIN
 10
0.0
 20
0.0
  9
$LIMMAX
 10
841.0
 20
594.0
  9
$ORTHOMODE
 70
     0
  9
$REGENMODE
 70
     1
  9
$FILLMODE
 70
     1
  9
$QTEXTMODE
 70
     0
  9
$MIRRTEXT
 70
     1
  9
$DRAGMODE
 70
     2
  9
$LTSCALE
 40
1.0
  9
$OSMODE
 70
    37
  9
$ATTMODE
 70
     1
  9
$TEXTSIZE
 40
2.5
  9
$TRACEWID
 40
1.0
  9
$TEXTSTYLE
  7
STANDARD
  9
$CLAYER
  8
LAY-1
  9
$CELTYPE
  6
BYLAYER
  9
$CECOLOR
 62
   256
  9
$CELTSCALE
 40
1.0
  9
$DELOBJ
 70
     1
  9
$DISPSILH
 70
     0
  9
$DIMSCALE
 40
1.0
  9
$DIMASZ
 40
2.5
  9
$DIMEXO
 40
0.625
  9
$DIMDLI
 40
3.75
  9
$DIMRND
 40
0.0
  9
$DIMDLE
 40
0.0
  9
$DIMEXE
 40
1.25
  9
$DIMTP
 40
0.0
  9
$DIMTM
 40
0.0
  9
$DIMTXT
 40
2.5
  9
$DIMCEN
 40
2.5
  9
$DIMTSZ
 40
0.0
  9
$DIMTOL
 70
     0
  9
$DIMLIM
 70
     0
  9
$DIMTIH
 70
     0
  9
$DIMTOH
 70
     0
  9
$DIMSE1
 70
     0
  9
$DIMSE2
 70
     0
  9
$DIMTAD
 70
     1
  9
$DIMZIN
 70
     8
  9
$DIMBLK
  1

  9
$DIMASO
 70
     1
  9
$DIMSHO
 70
     1
  9
$DIMPOST
  1

  9
$DIMAPOST
  1

  9
$DIMALT
 70
     0
  9
$DIMALTD
 70
     3
  9
$DIMALTF
 40
0.03937007874016
  9
$DIMLFAC
 40
1.0
  9
$DIMTOFL
 70
     1
  9
$DIMTVP
 40
0.0
  9
$DIMTIX
 70
     0
  9
$DIMSOXD
 70
     0
  9
$DIMSAH
 70
     0
  9
$DIMBLK1
  1

  9
$DIMBLK2
  1

  9
$DIMSTYLE
  2
ISO-25
  9
$DIMCLRD
 70
     0
  9
$DIMCLRE
 70
     0
  9
$DIMCLRT
 70
     0
  9
$DIMTFAC
 40
1.0
  9
$DIMGAP
 40
0.625
  9
$DIMJUST
 70
     0
  9
$DIMSD1
 70
     0
  9
$DIMSD2
 70
     0
  9
$DIMTOLJ
 70
     0
  9
$DIMTZIN
 70
     8
  9
$DIMALTZ
 70
     0
  9
$DIMALTTZ
 70
     0
  9
$DIMFIT
 70
     3
  9
$DIMUPT
 70
     0
  9
$DIMUNIT
 70
     2
  9
$DIMDEC
 70
     2
  9
$DIMTDEC
 70
     2
  9
$DIMALTU
 70
     2
  9
$DIMALTTD
 70
     3
  9
$DIMTXSTY
  7
STANDARD
  9
$DIMAUNIT
 70
     0
  9
$LUNITS
 70
     2
  9
$LUPREC
 70
     4
  9
$SKETCHINC
 40
1.0
  9
$FILLETRAD
 40
10.0
  9
$AUNITS
 70
     0
  9
$AUPREC
 70
     0
  9
$MENU
  1
.
  9
$ELEVATION
 40
0.0
  9
$PELEVATION
 40
0.0
  9
$THICKNESS
 40
0.0
  9
$LIMCHECK
 70
     0
  9
$CHAMFERA
 40
0.0
  9
$CHAMFERB
 40
0.0
  9
$CHAMFERC
 40
0.0
  9
$CHAMFERD
 40
0.0
  9
$SKPOLY
 70
     0
  9
$TDCREATE
 40
2458306.684311077
  9
$TDUPDATE
 40
2458306.68431125
  9
$TDINDWG
 40
0.0000000116
  9
$TDUSRTIMER
 40
0.0000000116
  9
$USRTIMER
 70
     1
  9
$ANGBASE
 50
0.0
  9
$ANGDIR
 70
     0
  9
$PDMODE
 70
     0
  9
$PDSIZE
 40
0.0
  9
$PLINEWID
 40
0.0
  9
$COORDS
 70
     1
  9
$SPLFRAME
 70
     0
  9
$SPLINETYPE
 70
     6
  9
$SPLINESEGS
 70
     8
  9
$ATTDIA
 70
     0
  9
$ATTREQ
 70
     1
  9
$HANDLING
 70
     1
  9
$HANDSEED
  5
383
  9
$SURFTAB1
 70
     6
  9
$SURFTAB2
 70
     6
  9
$SURFTYPE
 70
     6
  9
$SURFU
 70
     6
  9
$SURFV
 70
     6
  9
$UCSNAME
  2

  9
$UCSORG
 10
0.0
 20
0.0
 30
0.0
  9
$UCSXDIR
 10
1.0
 20
0.0
 30
0.0
  9
$UCSYDIR
 10
0.0
 20
1.0
 30
0.0
  9
$PUCSNAME
  2

  9
$PUCSORG
 10
0.0
 20
0.0
 30
0.0
  9
$PUCSXDIR
 10
1.0
 20
0.0
 30
0.0
  9
$PUCSYDIR
 10
0.0
 20
1.0
 30
0.0
  9
$USERI1
 70
     0
  9
$USERI2
 70
     0
  9
$USERI3
 70
     0
  9
$USERI4
 70
     0
  9
$USERI5
 70
     0
  9
$USERR1
 40
0.0
  9
$USERR2
 40
0.0
  9
$USERR3
 40
0.0
  9
$USERR4
 40
0.0
  9
$USERR5
 40
0.0
  9
$WORLDVIEW
 70
     1
  9
$SHADEDGE
 70
     3
  9
$SHADEDIF
 70
    70
  9
$TILEMODE
 70
     1
  9
$MAXACTVP
 70
    64
  9
$PINSBASE
 10
0.0
 20
0.0
 30
0.0
  9
$PLIMCHECK
 70
     0
  9
$PEXTMIN
 10
1.000000000000000E+20
 20
1.000000000000000E+20
 30
1.000000000000000E+20
  9
$PEXTMAX
 10
-1.000000000000000E+20
 20
-1.000000000000000E+20
 30
-1.000000000000000E+20
  9
$PLIMMIN
 10
0.0
 20
0.0
  9
$PLIMMAX
 10
420.0
 20
297.0
  9
$UNITMODE
 70
     0
  9
$VISRETAIN
 70
     1
  9
$PLINEGEN
 70
     0
  9
$PSLTSCALE
 70
     1
  9
$TREEDEPTH
 70
  3020
  9
$PICKSTYLE
 70
     1
  9
$CMLSTYLE
  2
STANDARD
  9
$CMLJUST
 70
     0
  9
$CMLSCALE
 40
20.0
  9
$PROXYGRAPHICS
 70
     1
  9
$MEASUREMENT
 70
     1
  0
ENDSEC
  0
SECTION
  2
CLASSES
  0
CLASS
  1
ACDBDICTIONARYWDFLT
  2
AcDbDictionaryWithDefault
  3
ObjectDBX Classes
 90
        0
280
     0
281
     0
  0
CLASS
  1
VISUALSTYLE
  2
AcDbVisualStyle
  3
ObjectDBX Classes
 90
     4095
280
     0
281
     0
  0
CLASS
  1
MATERIAL
  2
AcDbMaterial
  3
ObjectDBX Classes
 90
     1153
280
     0
281
     0
  0
CLASS
  1
SCALE
  2
AcDbScale
  3
ObjectDBX Classes
 90
     1153
280
     0
281
     0
  0
CLASS
  1
TABLESTYLE
  2
AcDbTableStyle
  3
ObjectDBX Classes
 90
     4095
280
     0
281
     0
  0
CLASS
  1
MLEADERSTYLE
  2
AcDbMLeaderStyle
  3
ACDB_MLEADERSTYLE_CLASS
 90
     4095
280
     0
281
     0
  0
CLASS
  1
SUN
  2
AcDbSun
  3
SCENEOE
 90
     1153
280
     0
281
     0
  0
CLASS
  1
DICTIONARYVAR
  2
AcDbDictionaryVar
  3
ObjectDBX Classes
 90
        0
280
     0
281
     0
  0
CLASS
  1
XRECORD
  2
AcDbXrecord
  3
ObjectDBX Classes
 90
        0
280
     0
281
     0
  0
CLASS
  1
LWPOLYLINE
  2
AcDbPolyline
  3
ObjectDBX Classes
 90
        0
280
     0
281
     1
  0
CLASS
  1
HATCH
  2
AcDbHatch
  3
ObjectDBX Classes
 90
        0
280
     0
281
     1
  0
CLASS
  1
ACDBPLACEHOLDER
  2
AcDbPlaceHolder
  3
ObjectDBX Classes
 90
        0
280
     0
281
     0
  0
CLASS
  1
LAYOUT
  2
AcDbLayout
  3
ObjectDBX Classes
 90
        0
280
     0
281
     0
  0
ENDSEC
  0
SECTION
  2
TABLES
  0
TABLE
  2
VPORT
  5
8
102
{ACAD_XDICTIONARY
360
378
102
}
330
0
100
AcDbSymbolTable
 70
     1
  0
VPORT
  5
29
330
8
100
AcDbSymbolTableRecord
100
AcDbViewportTableRecord
  2
*ACTIVE
 70
     0
 10
0.0
 20
0.0
 11
1.0
 21
1.0
 12
403.0
 22
295.5
 13
0.0
 23
0.0
 14
10.0
 24
10.0
 15
10.0
 25
10.0
 16
0.0
 26
0.0
 36
1.0
 17
0.0
 27
0.0
 37
0.0
 40
531.0
 41
1.242937853107345
 42
50.0
 43
0.0
 44
0.0
 50
0.0
 51
0.0
 71
     0
 72
  1000
 73
     1
 74
     3
 75
     0
 76
     0
 77
     0
 78
     0
  0
ENDTAB
  0
TABLE
  2
LTYPE
  5
5
330
0
100
AcDbSymbolTable
 70
    13
  0
LTYPE
  5
14
330
5
100
AcDbSymbolTableRecord
100
AcDbLinetypeTableRecord
  2
BYBLOCK
 70
     0
  3

 72
    65
 73
     0
 40
0.0
  0
LTYPE
  5
15
330
5
100
AcDbSymbolTableRecord
100
AcDbLinetypeTableRecord
  2
BYLAYER
 70
     0
  3

 72
    65
 73
     0
 40
0.0
  0
LTYPE
  5
16
330
5
100
AcDbSymbolTableRecord
100
AcDbLinetypeTableRecord
  2
CONTINUOUS
 70
     0
  3
Solid line
 72
    65
 73
     0
 40
0.0
  0
LTYPE
  5
6E
330
5
100
AcDbSymbolTableRecord
100
AcDbLinetypeTableRecord
  2
EXLTYPE0
 70
     0
  3
破線
 72
    65
 73
     2
 40
1.9
 49
1.5
 74
     0
 49
-0.4
 74
     0
  0
LTYPE
  5
6F
330
5
100
AcDbSymbolTableRecord
100
AcDbLinetypeTableRecord
  2
EXLTYPE1
 70
     0
  3
破線2
 72
    65
 73
     2
 40
1.0
 49
0.5
 74
     0
 49
-0.5
 74
     0
  0
LTYPE
  5
70
330
5
100
AcDbSymbolTableRecord
100
AcDbLinetypeTableRecord
  2
EXLTYPE2
 70
     0
  3
一点鎖線
 72
    65
 73
     4
 40
6.5
 49
5.0
 74
     0
 49
-0.5
 74
     0
 49
0.5
 74
     0
 49
-0.5
 74
     0
  0
LTYPE
  5
71
330
5
100
AcDbSymbolTableRecord
100
AcDbLinetypeTableRecord
  2
EXLTYPE3
 70
     0
  3
二点鎖線
 72
    65
 73
     6
 40
7.5
 49
5.0
 74
     0
 49
-0.5
 74
     0
 49
0.5
 74
     0
 49
-0.5
 74
     0
 49
0.5
 74
     0
 49
-0.5
 74
     0
  0
LTYPE
  5
72
330
5
100
AcDbSymbolTableRecord
100
AcDbLinetypeTableRecord
  2
EXLTYPE4
 70
     0
  3
三点鎖線
 72
    65
 73
     8
 40
18.5
 49
15.0
 74
     0
 49
-0.5
 74
     0
 49
0.5
 74
     0
 49
-0.5
 74
     0
 49
0.5
 74
     0
 49
-0.5
 74
     0
 49
0.5
 74
     0
 49
-0.5
 74
     0
  0
LTYPE
  5
73
330
5
100
AcDbSymbolTableRecord
100
AcDbLinetypeTableRecord
  2
EXLTYPE5
 70
     0
  3
四点鎖線
 72
    65
 73
    10
 40
19.5
 49
15.0
 74
     0
 49
-0.5
 74
     0
 49
0.5
 74
     0
 49
-0.5
 74
     0
 49
0.5
 74
     0
 49
-0.5
 74
     0
 49
0.5
 74
     0
 49
-0.5
 74
     0
 49
0.5
 74
     0
 49
-0.5
 74
     0
  0
LTYPE
  5
74
330
5
100
AcDbSymbolTableRecord
100
AcDbLinetypeTableRecord
  2
EXLTYPE6
 70
     0
  3
一点鎖線2
 72
    65
 73
     4
 40
3.55
 49
2.5
 74
     0
 49
-0.35
 74
     0
 49
0.35
 74
     0
 49
-0.35
 74
     0
  0
LTYPE
  5
75
330
5
100
AcDbSymbolTableRecord
100
AcDbLinetypeTableRecord
  2
EXLTYPE7
 70
     0
  3
二点鎖線2
 72
    65
 73
     6
 40
2.25
 49
1.0
 74
     0
 49
-0.25
 74
     0
 49
0.25
 74
     0
 49
-0.25
 74
     0
 49
0.25
 74
     0
 49
-0.25
 74
     0
  0
LTYPE
  5
76
330
5
100
AcDbSymbolTableRecord
100
AcDbLinetypeTableRecord
  2
EXLTYPE8
 70
     0
  3
二点鎖線3
 72
    65
 73
     6
 40
3.75
 49
2.5
 74
     0
 49
-0.25
 74
     0
 49
0.25
 74
     0
 49
-0.25
 74
     0
 49
0.25
 74
     0
 49
-0.25
 74
     0
  0
LTYPE
  5
77
330
5
100
AcDbSymbolTableRecord
100
AcDbLinetypeTableRecord
  2
EXLTYPE9
 70
     0
  3
二点鎖線4
 72
    65
 73
     6
 40
2.25
 49
1.0
 74
     0
 49
-0.25
 74
     0
 49
0.25
 74
     0
 49
-0.25
 74
     0
 49
0.25
 74
     0
 49
-0.25
 74
     0
  0
LTYPE
  5
78
330
5
100
AcDbSymbolTableRecord
100
AcDbLinetypeTableRecord
  2
EXLTYPE10
 70
     0
  3
二点鎖線5
 72
    65
 73
     6
 40
3.75
 49
2.5
 74
     0
 49
-0.25
 74
     0
 49
0.25
 74
     0
 49
-0.25
 74
     0
 49
0.25
 74
     0
 49
-0.25
 74
     0
  0
LTYPE
  5
79
330
5
100
AcDbSymbolTableRecord
100
AcDbLinetypeTableRecord
  2
EXLTYPE11
 70
     0
  3
破線3
 72
    65
 73
     2
 40
0.5
 49
0.25
 74
     0
 49
-0.25
 74
     0
  0
ENDTAB
  0
TABLE
  2
LAYER
  5
2
330
0
100
AcDbSymbolTable
 70
     2
  0
LAYER
  5
10
330
2
100
AcDbSymbolTableRecord
100
AcDbLayerTableRecord
  2
0
 70
     0
 62
     7
  6
CONTINUOUS
  0
LAYER
  5
7C
330
2
100
AcDbSymbolTableRecord
100
AcDbLayerTableRecord
  2
LAY-1
 70
     0
 62
     7
  6
CONTINUOUS
  0
ENDTAB
  0
TABLE
  2
STYLE
  5
3
330
0
100
AcDbSymbolTable
 70
     4
  0
STYLE
  5
11
330
3
100
AcDbSymbolTableRecord
100
AcDbTextStyleTableRecord
  2
STANDARD
 70
     0
 40
0.0
 41
1.0
 50
0.0
 71
     0
 42
2.5
  3
monotxt
  4
extfont
  0
STYLE
  5
7A
330
3
100
AcDbSymbolTableRecord
100
AcDbTextStyleTableRecord
  2
EXCADSTD
 70
     0
 40
0.0
 41
1.0
 50
0.0
 71
     0
 42
2.5
  3
monotxt
  4
extfont
  0
STYLE
  5
7B
330
3
100
AcDbSymbolTableRecord
100
AcDbTextStyleTableRecord
  2
EXCADVERT
 70
     4
 40
0.0
 41
1.0
 50
0.0
 71
     0
 42
2.5
  3
monotxt
  4
extfont
  0
STYLE
  5
345
330
3
100
AcDbSymbolTableRecord
100
AcDbTextStyleTableRecord
  2
EXCADTTF1
 70
     0
 40
0.0
 41
1.0
 50
0.0
 71
     0
 42
2.5
  3
msmincho.ttc
  4

1001
ACAD
1000
MS Mincho
1071
    32785
  0
ENDTAB
  0
TABLE
  2
VIEW
  5
6
330
0
100
AcDbSymbolTable
 70
     0
  0
ENDTAB
  0
TABLE
  2
UCS
  5
7
330
0
100
AcDbSymbolTable
 70
     0
  0
ENDTAB
  0
TABLE
  2
APPID
  5
9
330
0
100
AcDbSymbolTable
 70
     2
  0
APPID
  5
12
330
9
100
AcDbSymbolTableRecord
100
AcDbRegAppTableRecord
  2
ACAD
 70
     0
  0
APPID
  5
382
330
9
100
AcDbSymbolTableRecord
100
AcDbRegAppTableRecord
  2
ACAD_MLEADERVER
 70
     0
  0
ENDTAB
  0
TABLE
  2
DIMSTYLE
  5
A
330
0
100
AcDbSymbolTable
 70
     1
  0
DIMSTYLE
105
27
330
A
100
AcDbSymbolTableRecord
100
AcDbDimStyleTableRecord
  2
ISO-25
 70
     0
  3

  4

  5

  6

  7

 40
1.0
 41
2.5
 42
0.625
 43
3.75
 44
1.25
 45
0.0
 46
0.0
 47
0.0
 48
0.0
140
2.5
141
2.5
142
0.0
143
0.03937007874016
144
1.0
145
0.0
146
1.0
147
0.625
 71
     0
 72
     0
 73
     0
 74
     0
 75
     0
 76
     0
 77
     1
 78
     8
170
     0
171
     3
172
     1
173
     0
174
     0
175
     0
176
     0
177
     0
178
     0
270
     2
271
     2
272
     2
273
     2
274
     3
340
11
275
     0
280
     0
281
     0
282
     0
283
     0
284
     8
285
     0
286
     0
287
     5
288
     0
  0
ENDTAB
  0
TABLE
  2
BLOCK_RECORD
  5
1
330
0
100
AcDbSymbolTable
 70
    15
  0
BLOCK_RECORD
  5
1F
330
1
100
AcDbSymbolTableRecord
100
AcDbBlockTableRecord
  2
*MODEL_SPACE
  0
BLOCK_RECORD
  5
1B
330
1
100
AcDbSymbolTableRecord
100
AcDbBlockTableRecord
  2
*PAPER_SPACE
  0
BLOCK_RECORD
  5
7D
330
1
100
AcDbSymbolTableRecord
100
AcDbBlockTableRecord
  2
EX_NORM
  0
BLOCK_RECORD
  5
80
330
1
100
AcDbSymbolTableRecord
100
AcDbBlockTableRecord
  2
EX_BNORM
  0
BLOCK_RECORD
  5
83
330
1
100
AcDbSymbolTableRecord
100
AcDbBlockTableRecord
  2
EX_BCIR
  0
BLOCK_RECORD
  5
86
330
1
100
AcDbSymbolTableRecord
100
AcDbBlockTableRecord
  2
EX_RCIVIL
  0
BLOCK_RECORD
  5
89
330
1
100
AcDbSymbolTableRecord
100
AcDbBlockTableRecord
  2
EX_SLANT
  0
BLOCK_RECORD
  5
8C
330
1
100
AcDbSymbolTableRecord
100
AcDbBlockTableRecord
  2
EX_NONE
  0
BLOCK_RECORD
  5
8F
330
1
100
AcDbSymbolTableRecord
100
AcDbBlockTableRecord
  2
EX_CIVIL
  0
BLOCK_RECORD
  5
92
330
1
100
AcDbSymbolTableRecord
100
AcDbBlockTableRecord
  2
EX_WCIR
  0
BLOCK_RECORD
  5
95
330
1
100
AcDbSymbolTableRecord
100
AcDbBlockTableRecord
  2
EX_WCIR2
  0
BLOCK_RECORD
  5
98
330
1
100
AcDbSymbolTableRecord
100
AcDbBlockTableRecord
  2
EX_WNORM
  0
BLOCK_RECORD
  5
9B
330
1
100
AcDbSymbolTableRecord
100
AcDbBlockTableRecord
  2
EX_NNORM
  0
BLOCK_RECORD
  5
9E
330
1
100
AcDbSymbolTableRecord
100
AcDbBlockTableRecord
  2
EX_BBOX
  0
BLOCK_RECORD
  5
A1
330
1
100
AcDbSymbolTableRecord
100
AcDbBlockTableRecord
  2
EX_WBOX
  0
BLOCK_RECORD
  5
A4
330
1
100
AcDbSymbolTableRecord
100
AcDbBlockTableRecord
  2
EX_INTEGRAL
  0
ENDTAB
  0
ENDSEC
  0
SECTION
  2
BLOCKS
  0
BLOCK
  5
20
330
1F
100
AcDbEntity
  8
0
100
AcDbBlockBegin
  2
*MODEL_SPACE
 70
     0
 10
0.0
 20
0.0
 30
0.0
  3
*MODEL_SPACE
  1

  0
ENDBLK
  5
21
330
1F
100
AcDbEntity
  8
0
100
AcDbBlockEnd
  0
BLOCK
  5
1C
330
1B
100
AcDbEntity
 67
     1
  8
0
100
AcDbBlockBegin
  2
*PAPER_SPACE
 70
     0
 10
0.0
 20
0.0
 30
0.0
  3
*PAPER_SPACE
  1

  0
ENDBLK
  5
1D
330
1B
100
AcDbEntity
 67
     1
  8
0
100
AcDbBlockEnd
  0
BLOCK
  5
7E
330
7D
100
AcDbEntity
  8
0
100
AcDbBlockBegin
  2
EX_NORM
 70
     0
 10
0.0
 20
0.0
 30
0.0
  3
EX_NORM
  1

  0
LINE
  5
A7
330
7D
100
AcDbEntity
  8
0
  6
CONTINUOUS
 62
     0
100
AcDbLine
 10
0.0
 20
0.0
 30
0.0
 11
-1.0
 21
0.0
 31
0.0
  0
LINE
  5
A8
330
7D
100
AcDbEntity
  8
0
  6
CONTINUOUS
 62
     0
100
AcDbLine
 10
0.0
 20
0.0
 30
0.0
 11
-1.0
 21
0.166666667
 31
0.0
  0
LINE
  5
A9
330
7D
100
AcDbEntity
  8
0
  6
CONTINUOUS
 62
     0
100
AcDbLine
 10
0.0
 20
0.0
 30
0.0
 11
-1.0
 21
-0.166666667
 31
0.0
  0
ENDBLK
  5
7F
330
7D
100
AcDbEntity
  8
0
100
AcDbBlockEnd
  0
BLOCK
  5
81
330
80
100
AcDbEntity
  8
0
100
AcDbBlockBegin
  2
EX_BNORM
 70
     0
 10
0.0
 20
0.0
 30
0.0
  3
EX_BNORM
  1

  0
LINE
  5
AA
330
80
100
AcDbEntity
  8
0
  6
CONTINUOUS
 62
     0
100
AcDbLine
 10
0.0
 20
0.0
 30
0.0
 11
-1.0
 21
0.0
 31
0.0
  0
LINE
  5
AB
330
80
100
AcDbEntity
  8
0
  6
CONTINUOUS
 62
     0
100
AcDbLine
 10
0.0
 20
0.0
 30
0.0
 11
-1.0
 21
0.166666667
 31
0.0
  0
LINE
  5
AC
330
80
100
AcDbEntity
  8
0
  6
CONTINUOUS
 62
     0
100
AcDbLine
 10
0.0
 20
0.0
 30
0.0
 11
-1.0
 21
-0.166666667
 31
0.0
  0
LINE
  5
AD
330
80
100
AcDbEntity
  8
0
  6
CONTINUOUS
 62
     0
100
AcDbLine
 10
0.0
 20
0.0
 30
0.0
 11
-1.0
 21
0.083333333
 31
0.0
  0
LINE
  5
AE
330
80
100
AcDbEntity
  8
0
  6
CONTINUOUS
 62
     0
100
AcDbLine
 10
0.0
 20
0.0
 30
0.0
 11
-1.0
 21
-0.083333333
 31
0.0
  0
LINE
  5
AF
330
80
100
AcDbEntity
  8
0
  6
CONTINUOUS
 62
     0
100
AcDbLine
 10
-1.0
 20
0.166666667
 30
0.0
 11
-1.0
 21
-0.166666667
 31
0.0
  0
ENDBLK
  5
82
330
80
100
AcDbEntity
  8
0
100
AcDbBlockEnd
  0
BLOCK
  5
84
330
83
100
AcDbEntity
  8
0
100
AcDbBlockBegin
  2
EX_BCIR
 70
     0
 10
0.0
 20
0.0
 30
0.0
  3
EX_BCIR
  1

  0
LINE
  5
B0
330
83
100
AcDbEntity
  8
0
  6
CONTINUOUS
 62
     0
100
AcDbLine
 10
0.0
 20
0.0
 30
0.0
 11
-1.0
 21
0.0
 31
0.0
  0
CIRCLE
  5
B1
330
83
100
AcDbEntity
  8
0
  6
CONTINUOUS
 62
     0
100
AcDbCircle
 10
0.0
 20
0.0
 30
0.0
 40
0.5
  0
CIRCLE
  5
B2
330
83
100
AcDbEntity
  8
0
  6
CONTINUOUS
 62
     0
100
AcDbCircle
 10
0.0
 20
0.0
 30
0.0
 40
0.25
  0
ENDBLK
  5
85
330
83
100
AcDbEntity
  8
0
100
AcDbBlockEnd
  0
BLOCK
  5
87
330
86
100
AcDbEntity
  8
0
100
AcDbBlockBegin
  2
EX_RCIVIL
 70
     0
 10
0.0
 20
0.0
 30
0.0
  3
EX_RCIVIL
  1

  0
LINE
  5
B3
330
86
100
AcDbEntity
  8
0
  6
CONTINUOUS
 62
     0
100
AcDbLine
 10
0.0
 20
0.0
 30
0.0
 11
-1.0
 21
0.0
 31
0.0
  0
LINE
  5
B4
330
86
100
AcDbEntity
  8
0
  6
CONTINUOUS
 62
     0
100
AcDbLine
 10
-1.0
 20
-0.25
 30
0.0
 11
0.0
 21
-0.25
 31
0.0
  0
LINE
  5
B5
330
86
100
AcDbEntity
  8
0
  6
CONTINUOUS
 62
     0
100
AcDbLine
 10
-1.0
 20
-0.125
 30
0.0
 11
0.0
 21
-0.125
 31
0.0
  0
ENDBLK
  5
88
330
86
100
AcDbEntity
  8
0
100
AcDbBlockEnd
  0
BLOCK
  5
8A
330
89
100
AcDbEntity
  8
0
100
AcDbBlockBegin
  2
EX_SLANT
 70
     0
 10
0.0
 20
0.0
 30
0.0
  3
EX_SLANT
  1

  0
LINE
  5
B6
330
89
100
AcDbEntity
  8
0
  6
CONTINUOUS
 62
     0
100
AcDbLine
 10
0.0
 20
0.0
 30
0.0
 11
-1.0
 21
0.0
 31
0.0
  0
LINE
  5
B7
330
89
100
AcDbEntity
  8
0
  6
CONTINUOUS
 62
     0
100
AcDbLine
 10
0.707106781
 20
0.707106781
 30
0.0
 11
-0.707106781
 21
-0.707106781
 31
0.0
  0
ENDBLK
  5
8B
330
89
100
AcDbEntity
  8
0
100
AcDbBlockEnd
  0
BLOCK
  5
8D
330
8C
100
AcDbEntity
  8
0
100
AcDbBlockBegin
  2
EX_NONE
 70
     0
 10
0.0
 20
0.0
 30
0.0
  3
EX_NONE
  1

  0
LINE
  5
B8
330
8C
100
AcDbEntity
  8
0
  6
CONTINUOUS
 62
     0
100
AcDbLine
 10
0.0
 20
0.0
 30
0.0
 11
-1.0
 21
0.0
 31
0.0
  0
ENDBLK
  5
8E
330
8C
100
AcDbEntity
  8
0
100
AcDbBlockEnd
  0
BLOCK
  5
90
330
8F
100
AcDbEntity
  8
0
100
AcDbBlockBegin
  2
EX_CIVIL
 70
     0
 10
0.0
 20
0.0
 30
0.0
  3
EX_CIVIL
  1

  0
LINE
  5
B9
330
8F
100
AcDbEntity
  8
0
  6
CONTINUOUS
 62
     0
100
AcDbLine
 10
0.0
 20
0.0
 30
0.0
 11
-1.0
 21
0.0
 31
0.0
  0
LINE
  5
BA
330
8F
100
AcDbEntity
  8
0
  6
CONTINUOUS
 62
     0
100
AcDbLine
 10
-1.0
 20
0.25
 30
0.0
 11
0.0
 21
0.25
 31
0.0
  0
LINE
  5
BB
330
8F
100
AcDbEntity
  8
0
  6
CONTINUOUS
 62
     0
100
AcDbLine
 10
-1.0
 20
0.125
 30
0.0
 11
0.0
 21
0.125
 31
0.0
  0
ENDBLK
  5
91
330
8F
100
AcDbEntity
  8
0
100
AcDbBlockEnd
  0
BLOCK
  5
93
330
92
100
AcDbEntity
  8
0
100
AcDbBlockBegin
  2
EX_WCIR
 70
     0
 10
0.0
 20
0.0
 30
0.0
  3
EX_WCIR
  1

  0
LINE
  5
BC
330
92
100
AcDbEntity
  8
0
  6
CONTINUOUS
 62
     0
100
AcDbLine
 10
0.0
 20
0.0
 30
0.0
 11
-1.0
 21
0.0
 31
0.0
  0
CIRCLE
  5
BD
330
92
100
AcDbEntity
  8
0
  6
CONTINUOUS
 62
     0
100
AcDbCircle
 10
0.0
 20
0.0
 30
0.0
 40
0.5
  0
ENDBLK
  5
94
330
92
100
AcDbEntity
  8
0
100
AcDbBlockEnd
  0
BLOCK
  5
96
330
95
100
AcDbEntity
  8
0
100
AcDbBlockBegin
  2
EX_WCIR2
 70
     0
 10
0.0
 20
0.0
 30
0.0
  3
EX_WCIR2
  1

  0
LINE
  5
BE
330
95
100
AcDbEntity
  8
0
  6
CONTINUOUS
 62
     0
100
AcDbLine
 10
-0.5
 20
0.0
 30
0.0
 11
-1.0
 21
0.0
 31
0.0
  0
CIRCLE
  5
BF
330
95
100
AcDbEntity
  8
0
  6
CONTINUOUS
 62
     0
100
AcDbCircle
 10
0.0
 20
0.0
 30
0.0
 40
0.5
  0
ENDBLK
  5
97
330
95
100
AcDbEntity
  8
0
100
AcDbBlockEnd
  0
BLOCK
  5
99
330
98
100
AcDbEntity
  8
0
100
AcDbBlockBegin
  2
EX_WNORM
 70
     0
 10
0.0
 20
0.0
 30
0.0
  3
EX_WNORM
  1

  0
LINE
  5
C0
330
98
100
AcDbEntity
  8
0
  6
CONTINUOUS
 62
     0
100
AcDbLine
 10
-1.0
 20
0.0
 30
0.0
 11
-1.0
 21
0.0
 31
0.0
  0
LINE
  5
C1
330
98
100
AcDbEntity
  8
0
  6
CONTINUOUS
 62
     0
100
AcDbLine
 10
0.0
 20
0.0
 30
0.0
 11
-1.0
 21
0.166666667
 31
0.0
  0
LINE
  5
C2
330
98
100
AcDbEntity
  8
0
  6
CONTINUOUS
 62
     0
100
AcDbLine
 10
0.0
 20
0.0
 30
0.0
 11
-1.0
 21
-0.166666667
 31
0.0
  0
LINE
  5
C3
330
98
100
AcDbEntity
  8
0
  6
CONTINUOUS
 62
     0
100
AcDbLine
 10
-1.0
 20
0.166666667
 30
0.0
 11
-1.0
 21
-0.166666667
 31
0.0
  0
ENDBLK
  5
9A
330
98
100
AcDbEntity
  8
0
100
AcDbBlockEnd
  0
BLOCK
  5
9C
330
9B
100
AcDbEntity
  8
0
100
AcDbBlockBegin
  2
EX_NNORM
 70
     0
 10
0.0
 20
0.0
 30
0.0
  3
EX_NNORM
  1

  0
LINE
  5
C4
330
9B
100
AcDbEntity
  8
0
  6
CONTINUOUS
 62
     0
100
AcDbLine
 10
0.0
 20
0.0
 30
0.0
 11
-1.0
 21
0.0
 31
0.0
  0
LINE
  5
C5
330
9B
100
AcDbEntity
  8
0
  6
CONTINUOUS
 62
     0
100
AcDbLine
 10
0.0
 20
0.0
 30
0.0
 11
-1.0
 21
0.166666667
 31
0.0
  0
LINE
  5
C6
330
9B
100
AcDbEntity
  8
0
  6
CONTINUOUS
 62
     0
100
AcDbLine
 10
0.0
 20
0.0
 30
0.0
 11
-1.0
 21
-0.166666667
 31
0.0
  0
LINE
  5
C7
330
9B
100
AcDbEntity
  8
0
  6
CONTINUOUS
 62
     0
100
AcDbLine
 10
-1.0
 20
0.166666667
 30
0.0
 11
-1.0
 21
-0.166666667
 31
0.0
  0
ENDBLK
  5
9D
330
9B
100
AcDbEntity
  8
0
100
AcDbBlockEnd
  0
BLOCK
  5
9F
330
9E
100
AcDbEntity
  8
0
100
AcDbBlockBegin
  2
EX_BBOX
 70
     0
 10
0.0
 20
0.0
 30
0.0
  3
EX_BBOX
  1

  0
LINE
  5
C8
330
9E
100
AcDbEntity
  8
0
  6
CONTINUOUS
 62
     0
100
AcDbLine
 10
0.0
 20
0.0
 30
0.0
 11
-1.0
 21
0.0
 31
0.0
  0
LINE
  5
C9
330
9E
100
AcDbEntity
  8
0
  6
CONTINUOUS
 62
     0
100
AcDbLine
 10
-0.5
 20
0.5
 30
0.0
 11
0.5
 21
0.5
 31
0.0
  0
LINE
  5
CA
330
9E
100
AcDbEntity
  8
0
  6
CONTINUOUS
 62
     0
100
AcDbLine
 10
0.5
 20
0.5
 30
0.0
 11
0.5
 21
-0.5
 31
0.0
  0
LINE
  5
CB
330
9E
100
AcDbEntity
  8
0
  6
CONTINUOUS
 62
     0
100
AcDbLine
 10
0.5
 20
-0.5
 30
0.0
 11
-0.5
 21
-0.5
 31
0.0
  0
LINE
  5
CC
330
9E
100
AcDbEntity
  8
0
  6
CONTINUOUS
 62
     0
100
AcDbLine
 10
-0.5
 20
-0.5
 30
0.0
 11
-0.5
 21
0.5
 31
0.0
  0
LINE
  5
CD
330
9E
100
AcDbEntity
  8
0
  6
CONTINUOUS
 62
     0
100
AcDbLine
 10
-0.25
 20
0.25
 30
0.0
 11
0.25
 21
0.25
 31
0.0
  0
LINE
  5
CE
330
9E
100
AcDbEntity
  8
0
  6
CONTINUOUS
 62
     0
100
AcDbLine
 10
0.25
 20
0.25
 30
0.0
 11
0.25
 21
-0.25
 31
0.0
  0
LINE
  5
CF
330
9E
100
AcDbEntity
  8
0
  6
CONTINUOUS
 62
     0
100
AcDbLine
 10
0.25
 20
-0.25
 30
0.0
 11
-0.25
 21
-0.25
 31
0.0
  0
LINE
  5
D0
330
9E
100
AcDbEntity
  8
0
  6
CONTINUOUS
 62
     0
100
AcDbLine
 10
-0.25
 20
-0.25
 30
0.0
 11
-0.25
 21
0.25
 31
0.0
  0
ENDBLK
  5
A0
330
9E
100
AcDbEntity
  8
0
100
AcDbBlockEnd
  0
BLOCK
  5
A2
330
A1
100
AcDbEntity
  8
0
100
AcDbBlockBegin
  2
EX_WBOX
 70
     0
 10
0.0
 20
0.0
 30
0.0
  3
EX_WBOX
  1

  0
LINE
  5
D1
330
A1
100
AcDbEntity
  8
0
  6
CONTINUOUS
 62
     0
100
AcDbLine
 10
-0.5
 20
0.0
 30
0.0
 11
-1.0
 21
0.0
 31
0.0
  0
LINE
  5
D2
330
A1
100
AcDbEntity
  8
0
  6
CONTINUOUS
 62
     0
100
AcDbLine
 10
-0.5
 20
0.5
 30
0.0
 11
0.5
 21
0.5
 31
0.0
  0
LINE
  5
D3
330
A1
100
AcDbEntity
  8
0
  6
CONTINUOUS
 62
     0
100
AcDbLine
 10
0.5
 20
0.5
 30
0.0
 11
0.5
 21
-0.5
 31
0.0
  0
LINE
  5
D4
330
A1
100
AcDbEntity
  8
0
  6
CONTINUOUS
 62
     0
100
AcDbLine
 10
0.5
 20
-0.5
 30
0.0
 11
-0.5
 21
-0.5
 31
0.0
  0
LINE
  5
D5
330
A1
100
AcDbEntity
  8
0
  6
CONTINUOUS
 62
     0
100
AcDbLine
 10
-0.5
 20
-0.5
 30
0.0
 11
-0.5
 21
0.5
 31
0.0
  0
ENDBLK
  5
A3
330
A1
100
AcDbEntity
  8
0
100
AcDbBlockEnd
  0
BLOCK
  5
A5
330
A4
100
AcDbEntity
  8
0
100
AcDbBlockBegin
  2
EX_INTEGRAL
 70
     0
 10
0.0
 20
0.0
 30
0.0
  3
EX_INTEGRAL
  1

  0
LINE
  5
D6
330
A4
100
AcDbEntity
  8
0
  6
CONTINUOUS
 62
     0
100
AcDbLine
 10
0.0
 20
0.0
 30
0.0
 11
-1.0
 21
0.0
 31
0.0
  0
ARC
  5
D7
330
A4
100
AcDbEntity
  8
0
  6
CONTINUOUS
 62
     0
100
AcDbCircle
 10
0.542115
 20
0.164992
 30
0.0
 40
0.56667
100
AcDbArc
 50
73.07249033629006
 51
196.9275130221199
  0
ARC
  5
D8
330
A4
100
AcDbEntity
  8
0
  6
CONTINUOUS
 62
     0
100
AcDbCircle
 10
-0.542115
 20
-0.164992
 30
0.0
 40
0.56667
100
AcDbArc
 50
253.0724869220464
 51
16.9275130559125
  0
ENDBLK
  5
A6
330
A4
100
AcDbEntity
  8
0
100
AcDbBlockEnd
  0
ENDSEC
  0
SECTION
  2
ENTITIES
  0
LINE
  5
D9
330
1F
100
AcDbEntity
  8
LAY-1
  6
CONTINUOUS
 62
     3
100
AcDbLine
 10
84.0
 20
228.5
 30
0.0
 11
82.0
 21
228.5
 31
0.0
  0
LINE
  5
DA
330
1F
100
AcDbEntity
  8
LAY-1
  6
CONTINUOUS
 62
     3
100
AcDbLine
 10
99.99999999999989
 20
258.0
 30
0.0
 11
83.99999999999989
 21
258.0
 31
0.0
  0
LINE
  5
DB
330
1F
100
AcDbEntity
  8
LAY-1
  6
CONTINUOUS
 62
     3
100
AcDbLine
 10
107.0054100676992
 20
212.4078613482502
 30
0.0
 11
122.0
 21
209.0
 31
0.0
  0
ARC
  5
DC
330
1F
100
AcDbEntity
  8
LAY-1
  6
CONTINUOUS
 62
     3
100
AcDbCircle
 10
109.0
 20
221.1840570503733
 30
0.0
 40
9.0
100
AcDbArc
 50
180.0
 51
257.195733934713
  0
LINE
  5
DD
330
1F
100
AcDbEntity
  8
LAY-1
  6
CONTINUOUS
 62
     3
100
AcDbLine
 10
127.0000000000001
 20
209.0
 30
0.0
 11
122.0
 21
209.0
 31
0.0
  0
ARC
  5
DE
330
1F
100
AcDbEntity
  8
LAY-1
  6
CONTINUOUS
 62
     3
100
AcDbCircle
 10
127.0000000000001
 20
212.0
 30
0.0
 40
3.0
100
AcDbArc
 50
270.0
 51
0.0
  0
LINE
  5
DF
330
1F
100
AcDbEntity
  8
LAY-1
  6
CONTINUOUS
 62
     3
100
AcDbLine
 10
400.0
 20
228.5
 30
0.0
 11
402.0
 21
228.5
 31
0.0
  0
LINE
  5
E0
330
1F
100
AcDbEntity
  8
LAY-1
  6
CONTINUOUS
 62
     3
100
AcDbLine
 10
384.0000000000001
 20
258.0
 30
0.0
 11
400.0000000000001
 21
258.0
 31
0.0
  0
LINE
  5
E1
330
1F
100
AcDbEntity
  8
LAY-1
  6
CONTINUOUS
 62
     3
100
AcDbLine
 10
376.9945899323008
 20
212.4078613482502
 30
0.0
 11
362.0
 21
209.0
 31
0.0
  0
ARC
  5
E2
330
1F
100
AcDbEntity
  8
LAY-1
  6
CONTINUOUS
 62
     3
100
AcDbCircle
 10
375.0
 20
221.1840570503733
 30
0.0
 40
9.0
100
AcDbArc
 50
282.8042660652872
 51
0.0
  0
LINE
  5
E3
330
1F
100
AcDbEntity
  8
LAY-1
  6
CONTINUOUS
 62
     3
100
AcDbLine
 10
356.9999999999999
 20
209.0
 30
0.0
 11
362.0
 21
209.0
 31
0.0
  0
ARC
  5
E4
330
1F
100
AcDbEntity
  8
LAY-1
  6
CONTINUOUS
 62
     3
100
AcDbCircle
 10
356.9999999999999
 20
212.0
 30
0.0
 40
3.0
100
AcDbArc
 50
180.0
 51
270.0
  0
LINE
  5
E5
330
1F
100
AcDbEntity
  8
LAY-1
  6
CONTINUOUS
 62
     3
100
AcDbLine
 10
354.0
 20
221.0000000000002
 30
0.0
 11
130.0000000000001
 21
221.0
 31
0.0
  0
LINE
  5
E6
330
1F
100
AcDbEntity
  8
LAY-1
  6
CONTINUOUS
 62
     3
100
AcDbLine
 10
84.0
 20
77.5
 30
0.0
 11
82.0
 21
77.5
 31
0.0
  0
LINE
  5
E7
330
1F
100
AcDbEntity
  8
LAY-1
  6
CONTINUOUS
 62
     3
100
AcDbLine
 10
100.0
 20
48.0
 30
0.0
 11
84.0
 21
48.0
 31
0.0
  0
LINE
  5
E8
330
1F
100
AcDbEntity
  8
LAY-1
  6
CONTINUOUS
 62
     3
100
AcDbLine
 10
130.0000000000001
 20
94.00000000000011
 30
0.0
 11
130.0000000000001
 21
85.0
 31
0.0
  0
LINE
  5
E9
330
1F
100
AcDbEntity
  8
LAY-1
  6
CONTINUOUS
 62
     3
100
AcDbLine
 10
400.0
 20
77.50000000000023
 30
0.0
 11
402.0
 21
77.50000000000023
 31
0.0
  0
LINE
  5
EA
330
1F
100
AcDbEntity
  8
LAY-1
  6
CONTINUOUS
 62
     3
100
AcDbLine
 10
384.0000000000002
 20
48.00000000000023
 30
0.0
 11
400.0000000000002
 21
48.00000000000023
 31
0.0
  0
LINE
  5
EB
330
1F
100
AcDbEntity
  8
LAY-1
  6
CONTINUOUS
 62
     3
100
AcDbLine
 10
354.0
 20
94.00000000000023
 30
0.0
 11
354.0
 21
85.00000000000011
 31
0.0
  0
LINE
  5
EC
330
1F
100
AcDbEntity
  8
LAY-1
  6
CONTINUOUS
 62
     3
100
AcDbLine
 10
354.0
 20
85.0
 30
0.0
 11
130.0000000000001
 21
85.0
 31
0.0
  0
LINE
  5
ED
330
1F
100
AcDbEntity
  8
LAY-1
  6
CONTINUOUS
 62
     3
100
AcDbLine
 10
82.0
 20
77.5
 30
0.0
 11
82.0
 21
228.5
 31
0.0
  0
LINE
  5
EE
330
1F
100
AcDbEntity
  8
LAY-1
  6
CONTINUOUS
 62
     3
100
AcDbLine
 10
402.0
 20
228.5
 30
0.0
 11
402.0
 21
77.5
 31
0.0
  0
LINE
  5
EF
330
1F
100
AcDbEntity
  8
LAY-1
  6
CONTINUOUS
 62
     3
100
AcDbLine
 10
100.0
 20
48.0
 30
0.0
 11
100.0
 21
258.0
 31
0.0
  0
LINE
  5
F0
330
1F
100
AcDbEntity
  8
LAY-1
  6
CONTINUOUS
 62
     3
100
AcDbLine
 10
84.0
 20
48.0
 30
0.0
 11
84.0
 21
258.0
 31
0.0
  0
LINE
  5
F1
330
1F
100
AcDbEntity
  8
LAY-1
  6
CONTINUOUS
 62
     3
100
AcDbLine
 10
400.0
 20
48.0
 30
0.0
 11
400.0
 21
258.0
 31
0.0
  0
LINE
  5
F2
330
1F
100
AcDbEntity
  8
LAY-1
  6
CONTINUOUS
 62
     3
100
AcDbLine
 10
107.0054100676992
 20
93.59213865174979
 30
0.0
 11
122.0
 21
97.0
 31
0.0
  0
ARC
  5
F3
330
1F
100
AcDbEntity
  8
LAY-1
  6
CONTINUOUS
 62
     3
100
AcDbCircle
 10
109.0
 20
84.81594294962667
 30
0.0
 40
9.0
100
AcDbArc
 50
102.8042660652871
 51
180.0
  0
ARC
  5
F4
330
1F
100
AcDbEntity
  8
LAY-1
  6
CONTINUOUS
 62
     3
100
AcDbCircle
 10
127.0000000000001
 20
94.0
 30
0.0
 40
3.0
100
AcDbArc
 50
0.0
 51
90.00000000000001
  0
LINE
  5
F5
330
1F
100
AcDbEntity
  8
LAY-1
  6
CONTINUOUS
 62
     3
100
AcDbLine
 10
127.0000000000001
 20
97.0
 30
0.0
 11
122.0
 21
97.0
 31
0.0
  0
LINE
  5
F6
330
1F
100
AcDbEntity
  8
LAY-1
  6
CONTINUOUS
 62
     3
100
AcDbLine
 10
376.9945899323008
 20
93.59213865174979
 30
0.0
 11
362.0
 21
97.0
 31
0.0
  0
ARC
  5
F7
330
1F
100
AcDbEntity
  8
LAY-1
  6
CONTINUOUS
 62
     3
100
AcDbCircle
 10
375.0
 20
84.81594294962667
 30
0.0
 40
9.0
100
AcDbArc
 50
0.0
 51
77.19573393471299
  0
LINE
  5
F8
330
1F
100
AcDbEntity
  8
LAY-1
  6
CONTINUOUS
 62
     3
100
AcDbLine
 10
356.9999999999999
 20
97.0
 30
0.0
 11
362.0
 21
97.0
 31
0.0
  0
ARC
  5
F9
330
1F
100
AcDbEntity
  8
LAY-1
  6
CONTINUOUS
 62
     3
100
AcDbCircle
 10
356.9999999999999
 20
94.0
 30
0.0
 40
3.0
100
AcDbArc
 50
90.00000000000001
 51
180.0
  0
LINE
  5
FA
330
1F
100
AcDbEntity
  8
LAY-1
  6
CONTINUOUS
 62
     3
100
AcDbLine
 10
384.0
 20
258.0
 30
0.0
 11
384.0
 21
48.0
 31
0.0
  0
ARC
  5
FB
330
1F
100
AcDbEntity
  8
LAY-1
  6
CONTINUOUS
 62
     3
100
AcDbCircle
 10
359.9741016977731
 20
153.0
 30
0.0
 40
56.03663323158312
100
AcDbArc
 50
146.4125194309084
 51
213.5874805690917
  0
ARC
  5
FC
330
1F
100
AcDbEntity
  8
LAY-1
  6
CONTINUOUS
 62
     3
100
AcDbCircle
 10
124.0258983022273
 20
153.0
 30
0.0
 40
56.03663323158312
100
AcDbArc
 50
326.4125194309082
 51
33.58748056909176
  0
ARC
  5
FD
330
1F
100
AcDbEntity
  8
LAY-1
  6
CONTINUOUS
 62
     3
100
AcDbCircle
 10
134.0000000000001
 20
203.0000000000002
 30
0.0
 40
4.0
100
AcDbArc
 50
180.0
 51
270.0
  0
LINE
  5
FE
330
1F
100
AcDbEntity
  8
LAY-1
  6
CONTINUOUS
 62
     3
100
AcDbLine
 10
130.0000000000001
 20
203.0000000000002
 30
0.0
 11
130.0000000000001
 21
221.0000000000001
 31
0.0
  0
LINE
  5
FF
330
1F
100
AcDbEntity
  8
LAY-1
  6
CONTINUOUS
 62
     3
100
AcDbLine
 10
349.9999999999999
 20
199.0000000000003
 30
0.0
 11
134.0000000000001
 21
199.0000000000002
 31
0.0
  0
ARC
  5
100
330
1F
100
AcDbEntity
  8
LAY-1
  6
CONTINUOUS
 62
     3
100
AcDbCircle
 10
349.9999999999999
 20
203.0000000000003
 30
0.0
 40
4.0
100
AcDbArc
 50
270.0
 51
0.0
  0
LINE
  5
101
330
1F
100
AcDbEntity
  8
LAY-1
  6
CONTINUOUS
 62
     3
100
AcDbLine
 10
353.9999999999999
 20
203.0000000000003
 30
0.0
 11
353.9999999999999
 21
221.0000000000001
 31
0.0
  0
ARC
  5
102
330
1F
100
AcDbEntity
  8
LAY-1
  6
CONTINUOUS
 62
     3
100
AcDbCircle
 10
134.0000000000001
 20
102.9999999999999
 30
0.0
 40
4.0
100
AcDbArc
 50
90.00000000000001
 51
180.0
  0
LINE
  5
103
330
1F
100
AcDbEntity
  8
LAY-1
  6
CONTINUOUS
 62
     3
100
AcDbLine
 10
130.0000000000001
 20
102.9999999999999
 30
0.0
 11
130.0000000000001
 21
84.99999999999989
 31
0.0
  0
LINE
  5
104
330
1F
100
AcDbEntity
  8
LAY-1
  6
CONTINUOUS
 62
     3
100
AcDbLine
 10
349.9999999999999
 20
106.9999999999997
 30
0.0
 11
134.0000000000001
 21
106.9999999999999
 31
0.0
  0
ARC
  5
105
330
1F
100
AcDbEntity
  8
LAY-1
  6
CONTINUOUS
 62
     3
100
AcDbCircle
 10
349.9999999999999
 20
102.9999999999997
 30
0.0
 40
4.0
100
AcDbArc
 50
0.0
 51
90.00000000000001
  0
LINE
  5
106
330
1F
100
AcDbEntity
  8
LAY-1
  6
CONTINUOUS
 62
     3
100
AcDbLine
 10
353.9999999999999
 20
102.9999999999997
 30
0.0
 11
353.9999999999999
 21
84.99999999999989
 31
0.0
  0
LINE
  5
107
330
1F
100
AcDbEntity
  8
LAY-1
  6
CONTINUOUS
 62
     3
100
AcDbLine
 10
346.3879532511102
 20
194.0000000000003
 30
0.0
 11
346.3879532511102
 21
199.0000000000003
 31
0.0
  0
ARC
  5
108
330
1F
100
AcDbEntity
  8
LAY-1
  6
CONTINUOUS
 62
     3
100
AcDbCircle
 10
343.3879532511102
 20
194.0000000000003
 30
0.0
 40
3.0
100
AcDbArc
 50
270.0
 51
0.0
  0
LINE
  5
109
330
1F
100
AcDbEntity
  8
LAY-1
  6
CONTINUOUS
 62
     3
100
AcDbLine
 10
322.38795325111
 20
194.0000000000003
 30
0.0
 11
322.38795325111
 21
199.0000000000003
 31
0.0
  0
LINE
  5
10A
330
1F
100
AcDbEntity
  8
LAY-1
  6
CONTINUOUS
 62
     3
100
AcDbLine
 10
343.3879532511102
 20
191.0000000000003
 30
0.0
 11
325.38795325111
 21
191.0000000000003
 31
0.0
  0
ARC
  5
10B
330
1F
100
AcDbEntity
  8
LAY-1
  6
CONTINUOUS
 62
     3
100
AcDbCircle
 10
325.38795325111
 20
194.0000000000003
 30
0.0
 40
3.0
100
AcDbArc
 50
180.0
 51
270.0
  0
LINE
  5
10C
330
1F
100
AcDbEntity
  8
LAY-1
  6
CONTINUOUS
 62
     3
100
AcDbLine
 10
137.61204674889
 20
194.0000000000003
 30
0.0
 11
137.61204674889
 21
199.0000000000003
 31
0.0
  0
ARC
  5
10D
330
1F
100
AcDbEntity
  8
LAY-1
  6
CONTINUOUS
 62
     3
100
AcDbCircle
 10
140.61204674889
 20
194.0000000000003
 30
0.0
 40
3.0
100
AcDbArc
 50
180.0
 51
270.0
  0
LINE
  5
10E
330
1F
100
AcDbEntity
  8
LAY-1
  6
CONTINUOUS
 62
     3
100
AcDbLine
 10
161.6120467488901
 20
194.0000000000003
 30
0.0
 11
161.6120467488901
 21
199.0000000000003
 31
0.0
  0
LINE
  5
10F
330
1F
100
AcDbEntity
  8
LAY-1
  6
CONTINUOUS
 62
     3
100
AcDbLine
 10
140.61204674889
 20
191.0000000000003
 30
0.0
 11
158.6120467488901
 21
191.0000000000003
 31
0.0
  0
ARC
  5
110
330
1F
100
AcDbEntity
  8
LAY-1
  6
CONTINUOUS
 62
     3
100
AcDbCircle
 10
158.6120467488901
 20
194.0000000000003
 30
0.0
 40
3.0
100
AcDbArc
 50
270.0
 51
0.0
  0
LINE
  5
111
330
1F
100
AcDbEntity
  8
LAY-1
  6
CONTINUOUS
 62
     3
100
AcDbLine
 10
346.3879532511102
 20
111.9999999999997
 30
0.0
 11
346.3879532511102
 21
106.9999999999997
 31
0.0
  0
ARC
  5
112
330
1F
100
AcDbEntity
  8
LAY-1
  6
CONTINUOUS
 62
     3
100
AcDbCircle
 10
343.3879532511102
 20
111.9999999999997
 30
0.0
 40
3.0
100
AcDbArc
 50
0.0
 51
90.00000000000001
  0
LINE
  5
113
330
1F
100
AcDbEntity
  8
LAY-1
  6
CONTINUOUS
 62
     3
100
AcDbLine
 10
322.38795325111
 20
111.9999999999997
 30
0.0
 11
322.38795325111
 21
106.9999999999997
 31
0.0
  0
LINE
  5
114
330
1F
100
AcDbEntity
  8
LAY-1
  6
CONTINUOUS
 62
     3
100
AcDbLine
 10
343.3879532511102
 20
114.9999999999997
 30
0.0
 11
325.38795325111
 21
114.9999999999997
 31
0.0
  0
ARC
  5
115
330
1F
100
AcDbEntity
  8
LAY-1
  6
CONTINUOUS
 62
     3
100
AcDbCircle
 10
325.38795325111
 20
111.9999999999997
 30
0.0
 40
3.0
100
AcDbArc
 50
90.00000000000001
 51
180.0
  0
LINE
  5
116
330
1F
100
AcDbEntity
  8
LAY-1
  6
CONTINUOUS
 62
     3
100
AcDbLine
 10
137.61204674889
 20
111.9999999999995
 30
0.0
 11
137.61204674889
 21
106.9999999999995
 31
0.0
  0
ARC
  5
117
330
1F
100
AcDbEntity
  8
LAY-1
  6
CONTINUOUS
 62
     3
100
AcDbCircle
 10
140.61204674889
 20
111.9999999999995
 30
0.0
 40
3.0
100
AcDbArc
 50
90.00000000000001
 51
180.0
  0
LINE
  5
118
330
1F
100
AcDbEntity
  8
LAY-1
  6
CONTINUOUS
 62
     3
100
AcDbLine
 10
161.6120467488901
 20
111.9999999999995
 30
0.0
 11
161.6120467488901
 21
106.9999999999995
 31
0.0
  0
LINE
  5
119
330
1F
100
AcDbEntity
  8
LAY-1
  6
CONTINUOUS
 62
     3
100
AcDbLine
 10
140.61204674889
 20
114.9999999999995
 30
0.0
 11
158.6120467488901
 21
114.9999999999995
 31
0.0
  0
ARC
  5
11A
330
1F
100
AcDbEntity
  8
LAY-1
  6
CONTINUOUS
 62
     3
100
AcDbCircle
 10
158.6120467488901
 20
111.9999999999995
 30
0.0
 40
3.0
100
AcDbArc
 50
0.0
 51
90.00000000000001
  0
LINE
  5
11B
330
1F
100
AcDbEntity
  8
LAY-1
  6
CONTINUOUS
 62
     3
100
AcDbLine
 10
129.9000000000001
 20
255.0
 30
0.0
 11
129.9000000000001
 21
235.0
 31
0.0
  0
ARC
  5
11C
330
1F
100
AcDbEntity
  8
LAY-1
  6
CONTINUOUS
 62
     3
100
AcDbCircle
 10
131.9000000000001
 20
255.0
 30
0.0
 40
2.0
100
AcDbArc
 50
90.00000000000001
 51
180.0
  0
LINE
  5
11D
330
1F
100
AcDbEntity
  8
LAY-1
  6
CONTINUOUS
 62
     3
100
AcDbLine
 10
354.9
 20
255.0
 30
0.0
 11
354.9
 21
235.0
 31
0.0
  0
ARC
  5
11E
330
1F
100
AcDbEntity
  8
LAY-1
  6
CONTINUOUS
 62
     3
100
AcDbCircle
 10
352.9
 20
255.0
 30
0.0
 40
2.0
100
AcDbArc
 50
0.0
 51
90.00000000000001
  0
LINE
  5
11F
330
1F
100
AcDbEntity
  8
LAY-1
  6
CONTINUOUS
 62
     3
100
AcDbLine
 10
354.9
 20
235.0
 30
0.0
 11
129.9000000000001
 21
235.0
 31
0.0
  0
LINE
  5
120
330
1F
100
AcDbEntity
  8
LAY-1
  6
CONTINUOUS
 62
     3
100
AcDbLine
 10
131.9
 20
257.0
 30
0.0
 11
352.9
 21
257.0
 31
0.0
  0
LINE
  5
121
330
1F
100
AcDbEntity
  8
LAY-1
  6
CONTINUOUS
 62
     3
100
AcDbLine
 10
149.5123621816101
 20
260.0
 30
0.0
 11
138.7623621816101
 21
260.0
 31
0.0
  0
LINE
  5
122
330
1F
100
AcDbEntity
  8
LAY-1
  6
CONTINUOUS
 62
     3
100
AcDbLine
 10
138.7623621816101
 20
257.0000000000002
 30
0.0
 11
138.7623621816101
 21
260.0
 31
0.0
  0
LINE
  5
123
330
1F
100
AcDbEntity
  8
LAY-1
  6
CONTINUOUS
 62
     3
100
AcDbLine
 10
149.5123621816101
 20
260.0
 30
0.0
 11
160.2623621816101
 21
260.0
 31
0.0
  0
LINE
  5
124
330
1F
100
AcDbEntity
  8
LAY-1
  6
CONTINUOUS
 62
     3
100
AcDbLine
 10
160.2623621816101
 20
257.0000000000002
 30
0.0
 11
160.2623621816101
 21
260.0
 31
0.0
  0
LINE
  5
125
330
1F
100
AcDbEntity
  8
LAY-1
  6
CONTINUOUS
 62
     3
100
AcDbLine
 10
148.5123621816101
 20
260.0
 30
0.0
 11
150.5123621816101
 21
257.0
 31
0.0
  0
LINE
  5
126
330
1F
100
AcDbEntity
  8
LAY-1
  6
CONTINUOUS
 62
     3
100
AcDbLine
 10
160.48205818161
 20
260.0
 30
0.0
 11
138.54266618161
 21
260.0
 31
0.0
  0
LINE
  5
127
330
1F
100
AcDbEntity
  8
LAY-1
  6
CONTINUOUS
 62
     3
100
AcDbLine
 10
140.51233218161
 20
268.0
 30
0.0
 11
158.51233218161
 21
268.0
 31
0.0
  0
LINE
  5
128
330
1F
100
AcDbEntity
  8
LAY-1
  6
CONTINUOUS
 62
     3
100
AcDbLine
 10
158.51233218161
 20
268.0
 30
0.0
 11
160.4821201816101
 21
266.8627320000001
 31
0.0
  0
ARC
  5
129
330
1F
100
AcDbEntity
  8
LAY-1
  6
CONTINUOUS
 62
     3
100
AcDbCircle
 10
149.5117221816101
 20
254.20523
 30
0.0
 40
13.794775
100
AcDbArc
 50
66.5695410695425
 51
113.4257430764437
  0
ARC
  5
12A
330
1F
100
AcDbEntity
  8
LAY-1
  6
CONTINUOUS
 62
     3
100
AcDbCircle
 10
158.5982081816101
 20
261.730133
 30
0.0
 40
6.271714
100
AcDbArc
 50
90.78468554827452
 51
125.0556976977885
  0
LINE
  5
12B
330
1F
100
AcDbEntity
  8
LAY-1
  6
CONTINUOUS
 62
     3
100
AcDbLine
 10
140.51233218161
 20
268.0
 30
0.0
 11
138.5425441816101
 21
266.8627320000001
 31
0.0
  0
ARC
  5
12C
330
1F
100
AcDbEntity
  8
LAY-1
  6
CONTINUOUS
 62
     3
100
AcDbCircle
 10
140.42645518161
 20
261.730133
 30
0.0
 40
6.271714
100
AcDbArc
 50
54.94430230221143
 51
89.21531445172546
  0
LINE
  5
12D
330
1F
100
AcDbEntity
  8
LAY-1
  6
CONTINUOUS
 62
     3
100
AcDbLine
 10
160.48205818161
 20
260.0
 30
0.0
 11
160.48208918161
 21
266.8627320000001
 31
0.0
  0
LINE
  5
12E
330
1F
100
AcDbEntity
  8
LAY-1
  6
CONTINUOUS
 62
     3
100
AcDbLine
 10
154.9970731816099
 20
260.000061
 30
0.0
 11
154.99710418161
 21
266.8627320000001
 31
0.0
  0
LINE
  5
12F
330
1F
100
AcDbEntity
  8
LAY-1
  6
CONTINUOUS
 62
     3
100
AcDbLine
 10
144.0275601816102
 20
260.000061
 30
0.0
 11
144.02757518161
 21
266.8627320000001
 31
0.0
  0
LINE
  5
130
330
1F
100
AcDbEntity
  8
LAY-1
  6
CONTINUOUS
 62
     3
100
AcDbLine
 10
138.54256018161
 20
260.0
 30
0.0
 11
138.5425751816101
 21
266.8627320000001
 31
0.0
  0
LINE
  5
131
330
1F
100
AcDbEntity
  8
LAY-1
  6
CONTINUOUS
 62
     3
100
AcDbLine
 10
203.53191807697
 20
260.0
 30
0.0
 11
192.78191807697
 21
260.0
 31
0.0
  0
LINE
  5
132
330
1F
100
AcDbEntity
  8
LAY-1
  6
CONTINUOUS
 62
     3
100
AcDbLine
 10
192.78191807697
 20
257.0000000000002
 30
0.0
 11
192.78191807697
 21
260.0
 31
0.0
  0
LINE
  5
133
330
1F
100
AcDbEntity
  8
LAY-1
  6
CONTINUOUS
 62
     3
100
AcDbLine
 10
203.53191807697
 20
260.0
 30
0.0
 11
214.28191807697
 21
260.0
 31
0.0
  0
LINE
  5
134
330
1F
100
AcDbEntity
  8
LAY-1
  6
CONTINUOUS
 62
     3
100
AcDbLine
 10
214.28191807697
 20
257.0000000000002
 30
0.0
 11
214.28191807697
 21
260.0
 31
0.0
  0
LINE
  5
135
330
1F
100
AcDbEntity
  8
LAY-1
  6
CONTINUOUS
 62
     3
100
AcDbLine
 10
202.53191807697
 20
260.0
 30
0.0
 11
204.53191807697
 21
257.0
 31
0.0
  0
LINE
  5
136
330
1F
100
AcDbEntity
  8
LAY-1
  6
CONTINUOUS
 62
     3
100
AcDbLine
 10
214.5016140769701
 20
260.0
 30
0.0
 11
192.5622220769701
 21
260.0
 31
0.0
  0
LINE
  5
137
330
1F
100
AcDbEntity
  8
LAY-1
  6
CONTINUOUS
 62
     3
100
AcDbLine
 10
194.5318880769701
 20
268.0
 30
0.0
 11
212.5318880769701
 21
268.0
 31
0.0
  0
LINE
  5
138
330
1F
100
AcDbEntity
  8
LAY-1
  6
CONTINUOUS
 62
     3
100
AcDbLine
 10
212.5318880769701
 20
268.0
 30
0.0
 11
214.5016760769702
 21
266.8627320000001
 31
0.0
  0
ARC
  5
139
330
1F
100
AcDbEntity
  8
LAY-1
  6
CONTINUOUS
 62
     3
100
AcDbCircle
 10
203.53127807697
 20
254.20523
 30
0.0
 40
13.794775
100
AcDbArc
 50
66.5695410695425
 51
113.4257430764437
  0
ARC
  5
13A
330
1F
100
AcDbEntity
  8
LAY-1
  6
CONTINUOUS
 62
     3
100
AcDbCircle
 10
212.6177640769702
 20
261.730133
 30
0.0
 40
6.271714
100
AcDbArc
 50
90.78468554827452
 51
125.0556976977885
  0
LINE
  5
13B
330
1F
100
AcDbEntity
  8
LAY-1
  6
CONTINUOUS
 62
     3
100
AcDbLine
 10
194.5318880769701
 20
268.0
 30
0.0
 11
192.5621000769702
 21
266.8627320000001
 31
0.0
  0
ARC
  5
13C
330
1F
100
AcDbEntity
  8
LAY-1
  6
CONTINUOUS
 62
     3
100
AcDbCircle
 10
194.4460110769701
 20
261.730133
 30
0.0
 40
6.271714
100
AcDbArc
 50
54.94430230221143
 51
89.21531445172546
  0
LINE
  5
13D
330
1F
100
AcDbEntity
  8
LAY-1
  6
CONTINUOUS
 62
     3
100
AcDbLine
 10
214.5016140769701
 20
260.0
 30
0.0
 11
214.5016450769701
 21
266.8627320000001
 31
0.0
  0
LINE
  5
13E
330
1F
100
AcDbEntity
  8
LAY-1
  6
CONTINUOUS
 62
     3
100
AcDbLine
 10
209.01662907697
 20
260.000061
 30
0.0
 11
209.0166600769701
 21
266.8627320000001
 31
0.0
  0
LINE
  5
13F
330
1F
100
AcDbEntity
  8
LAY-1
  6
CONTINUOUS
 62
     3
100
AcDbLine
 10
198.04711607697
 20
260.000061
 30
0.0
 11
198.0471310769701
 21
266.8627320000001
 31
0.0
  0
LINE
  5
140
330
1F
100
AcDbEntity
  8
LAY-1
  6
CONTINUOUS
 62
     3
100
AcDbLine
 10
192.5621160769701
 20
260.0
 30
0.0
 11
192.56213107697
 21
266.8627320000001
 31
0.0
  0
ARC
  5
141
330
1F
100
AcDbEntity
  8
LAY-1
  6
CONTINUOUS
 62
     3
100
AcDbCircle
 10
156.5999999999998
 20
265.0
 30
0.0
 40
4.0
100
AcDbArc
 50
32.69271614400862
 51
131.4096221092709
  0
LINE
  5
142
330
1F
100
AcDbEntity
  8
LAY-1
  6
CONTINUOUS
 62
     3
100
AcDbLine
 10
334.4876378183897
 20
260.0
 30
0.0
 11
345.2376378183897
 21
260.0
 31
0.0
  0
LINE
  5
143
330
1F
100
AcDbEntity
  8
LAY-1
  6
CONTINUOUS
 62
     3
100
AcDbLine
 10
345.2376378183897
 20
257.0000000000002
 30
0.0
 11
345.2376378183897
 21
260.0
 31
0.0
  0
LINE
  5
144
330
1F
100
AcDbEntity
  8
LAY-1
  6
CONTINUOUS
 62
     3
100
AcDbLine
 10
334.4876378183897
 20
260.0
 30
0.0
 11
323.7376378183897
 21
260.0
 31
0.0
  0
LINE
  5
145
330
1F
100
AcDbEntity
  8
LAY-1
  6
CONTINUOUS
 62
     3
100
AcDbLine
 10
323.7376378183897
 20
257.0000000000002
 30
0.0
 11
323.7376378183897
 21
260.0
 31
0.0
  0
LINE
  5
146
330
1F
100
AcDbEntity
  8
LAY-1
  6
CONTINUOUS
 62
     3
100
AcDbLine
 10
323.5179418183897
 20
260.0
 30
0.0
 11
345.4573338183897
 21
260.0
 31
0.0
  0
LINE
  5
147
330
1F
100
AcDbEntity
  8
LAY-1
  6
CONTINUOUS
 62
     3
100
AcDbLine
 10
343.4876678183898
 20
268.0
 30
0.0
 11
325.4876678183898
 21
268.0
 31
0.0
  0
LINE
  5
148
330
1F
100
AcDbEntity
  8
LAY-1
  6
CONTINUOUS
 62
     3
100
AcDbLine
 10
325.4876678183898
 20
268.0
 30
0.0
 11
323.5178798183896
 21
266.8627320000001
 31
0.0
  0
ARC
  5
149
330
1F
100
AcDbEntity
  8
LAY-1
  6
CONTINUOUS
 62
     3
100
AcDbCircle
 10
334.4882778183897
 20
254.20523
 30
0.0
 40
13.794775
100
AcDbArc
 50
66.57425692355646
 51
113.4304589304575
  0
ARC
  5
14A
330
1F
100
AcDbEntity
  8
LAY-1
  6
CONTINUOUS
 62
     3
100
AcDbCircle
 10
325.4017918183897
 20
261.730133
 30
0.0
 40
6.271714
100
AcDbArc
 50
54.94430230221172
 51
89.21531445172569
  0
LINE
  5
14B
330
1F
100
AcDbEntity
  8
LAY-1
  6
CONTINUOUS
 62
     3
100
AcDbLine
 10
343.4876678183898
 20
268.0
 30
0.0
 11
345.4574558183896
 21
266.8627320000001
 31
0.0
  0
ARC
  5
14C
330
1F
100
AcDbEntity
  8
LAY-1
  6
CONTINUOUS
 62
     3
100
AcDbCircle
 10
343.5735448183897
 20
261.730133
 30
0.0
 40
6.271714
100
AcDbArc
 50
90.78468554827482
 51
125.055697697789
  0
LINE
  5
14D
330
1F
100
AcDbEntity
  8
LAY-1
  6
CONTINUOUS
 62
     3
100
AcDbLine
 10
323.5179418183897
 20
260.0
 30
0.0
 11
323.5179108183897
 21
266.8627320000001
 31
0.0
  0
LINE
  5
14E
330
1F
100
AcDbEntity
  8
LAY-1
  6
CONTINUOUS
 62
     3
100
AcDbLine
 10
329.0029268183898
 20
260.000061
 30
0.0
 11
329.0028958183897
 21
266.8627320000001
 31
0.0
  0
LINE
  5
14F
330
1F
100
AcDbEntity
  8
LAY-1
  6
CONTINUOUS
 62
     3
100
AcDbLine
 10
339.9724398183897
 20
260.000061
 30
0.0
 11
339.9724248183897
 21
266.8627320000001
 31
0.0
  0
LINE
  5
150
330
1F
100
AcDbEntity
  8
LAY-1
  6
CONTINUOUS
 62
     3
100
AcDbLine
 10
345.4574398183897
 20
260.0
 30
0.0
 11
345.4574248183897
 21
266.8627320000001
 31
0.0
  0
LINE
  5
151
330
1F
100
AcDbEntity
  8
LAY-1
  6
CONTINUOUS
 62
     3
100
AcDbLine
 10
280.4680819230297
 20
260.0
 30
0.0
 11
291.2180819230297
 21
260.0
 31
0.0
  0
LINE
  5
152
330
1F
100
AcDbEntity
  8
LAY-1
  6
CONTINUOUS
 62
     3
100
AcDbLine
 10
291.2180819230297
 20
257.0000000000002
 30
0.0
 11
291.2180819230297
 21
260.0
 31
0.0
  0
LINE
  5
153
330
1F
100
AcDbEntity
  8
LAY-1
  6
CONTINUOUS
 62
     3
100
AcDbLine
 10
280.4680819230297
 20
260.0
 30
0.0
 11
269.7180819230297
 21
260.0
 31
0.0
  0
LINE
  5
154
330
1F
100
AcDbEntity
  8
LAY-1
  6
CONTINUOUS
 62
     3
100
AcDbLine
 10
269.7180819230297
 20
257.0000000000002
 30
0.0
 11
269.7180819230297
 21
260.0
 31
0.0
  0
LINE
  5
155
330
1F
100
AcDbEntity
  8
LAY-1
  6
CONTINUOUS
 62
     3
100
AcDbLine
 10
269.4983859230297
 20
260.0
 30
0.0
 11
291.4377779230297
 21
260.0
 31
0.0
  0
LINE
  5
156
330
1F
100
AcDbEntity
  8
LAY-1
  6
CONTINUOUS
 62
     3
100
AcDbLine
 10
289.4681119230298
 20
268.0
 30
0.0
 11
271.4681119230298
 21
268.0
 31
0.0
  0
LINE
  5
157
330
1F
100
AcDbEntity
  8
LAY-1
  6
CONTINUOUS
 62
     3
100
AcDbLine
 10
271.4681119230298
 20
268.0
 30
0.0
 11
269.4983239230297
 21
266.8627320000001
 31
0.0
  0
ARC
  5
158
330
1F
100
AcDbEntity
  8
LAY-1
  6
CONTINUOUS
 62
     3
100
AcDbCircle
 10
280.4687219230297
 20
254.20523
 30
0.0
 40
13.794775
100
AcDbArc
 50
66.57425692355646
 51
113.4304589304575
  0
ARC
  5
159
330
1F
100
AcDbEntity
  8
LAY-1
  6
CONTINUOUS
 62
     3
100
AcDbCircle
 10
271.3822359230297
 20
261.730133
 30
0.0
 40
6.271714
100
AcDbArc
 50
54.94430230221172
 51
89.21531445172569
  0
LINE
  5
15A
330
1F
100
AcDbEntity
  8
LAY-1
  6
CONTINUOUS
 62
     3
100
AcDbLine
 10
289.4681119230298
 20
268.0
 30
0.0
 11
291.4378999230296
 21
266.8627320000001
 31
0.0
  0
ARC
  5
15B
330
1F
100
AcDbEntity
  8
LAY-1
  6
CONTINUOUS
 62
     3
100
AcDbCircle
 10
289.5539889230297
 20
261.730133
 30
0.0
 40
6.271714
100
AcDbArc
 50
90.78468554827482
 51
125.055697697789
  0
LINE
  5
15C
330
1F
100
AcDbEntity
  8
LAY-1
  6
CONTINUOUS
 62
     3
100
AcDbLine
 10
269.4983859230297
 20
260.0
 30
0.0
 11
269.4983549230297
 21
266.8627320000001
 31
0.0
  0
LINE
  5
15D
330
1F
100
AcDbEntity
  8
LAY-1
  6
CONTINUOUS
 62
     3
100
AcDbLine
 10
274.9833709230298
 20
260.000061
 30
0.0
 11
274.9833399230297
 21
266.8627320000001
 31
0.0
  0
LINE
  5
15E
330
1F
100
AcDbEntity
  8
LAY-1
  6
CONTINUOUS
 62
     3
100
AcDbLine
 10
285.9528839230297
 20
260.000061
 30
0.0
 11
285.9528689230297
 21
266.8627320000001
 31
0.0
  0
LINE
  5
15F
330
1F
100
AcDbEntity
  8
LAY-1
  6
CONTINUOUS
 62
     3
100
AcDbLine
 10
291.4378839230297
 20
260.0
 30
0.0
 11
291.4378689230297
 21
266.8627320000001
 31
0.0
  0
ARC
  5
160
330
1F
100
AcDbEntity
  8
LAY-1
  6
CONTINUOUS
 62
     3
100
AcDbCircle
 10
327.4
 20
265.0
 30
0.0
 40
4.0
100
AcDbArc
 50
48.59037789072902
 51
147.3072838559917
  0
LINE
  5
161
330
1F
100
AcDbEntity
  8
LAY-1
  6
CONTINUOUS
 62
     3
100
AcDbLine
 10
279.4680819230297
 20
260.0
 30
0.0
 11
281.4680819230297
 21
257.0
 31
0.0
  0
LINE
  5
162
330
1F
100
AcDbEntity
  8
LAY-1
  6
CONTINUOUS
 62
     3
100
AcDbLine
 10
333.4876378183898
 20
260.0
 30
0.0
 11
335.4876378183898
 21
257.0
 31
0.0
  0
LINE
  5
163
330
1F
100
AcDbEntity
  8
LAY-1
  6
CONTINUOUS
 62
     3
100
AcDbLine
 10
143.5123321816101
 20
221.0000000000001
 30
0.0
 11
143.5123321816101
 21
235.0
 31
0.0
  0
LINE
  5
164
330
1F
100
AcDbEntity
  8
LAY-1
  6
CONTINUOUS
 62
     1
100
AcDbLine
 10
144.4593531816101
 20
221.0000000000001
 30
0.0
 11
144.4593531816101
 21
235.0
 31
0.0
  0
LINE
  5
165
330
1F
100
AcDbEntity
  8
LAY-1
  6
CONTINUOUS
 62
     1
100
AcDbLine
 10
154.5653101816101
 20
221.0000000000001
 30
0.0
 11
154.5653101816101
 21
235.0
 31
0.0
  0
LINE
  5
166
330
1F
100
AcDbEntity
  8
LAY-1
  6
CONTINUOUS
 62
     3
100
AcDbLine
 10
155.5123321816101
 20
221.0000000000001
 30
0.0
 11
155.5123321816101
 21
235.0
 31
0.0
  0
LINE
  5
167
330
1F
100
AcDbEntity
  8
LAY-1
  6
CONTINUOUS
 62
     3
100
AcDbLine
 10
197.5318880769701
 20
221.0000000000001
 30
0.0
 11
197.5318880769701
 21
235.0
 31
0.0
  0
LINE
  5
168
330
1F
100
AcDbEntity
  8
LAY-1
  6
CONTINUOUS
 62
     1
100
AcDbLine
 10
198.4789090769701
 20
221.0000000000001
 30
0.0
 11
198.4789090769701
 21
235.0
 31
0.0
  0
LINE
  5
169
330
1F
100
AcDbEntity
  8
LAY-1
  6
CONTINUOUS
 62
     1
100
AcDbLine
 10
208.5848660769701
 20
221.0000000000001
 30
0.0
 11
208.5848660769701
 21
235.0
 31
0.0
  0
LINE
  5
16A
330
1F
100
AcDbEntity
  8
LAY-1
  6
CONTINUOUS
 62
     3
100
AcDbLine
 10
209.5318880769701
 20
221.0000000000001
 30
0.0
 11
209.5318880769701
 21
235.0
 31
0.0
  0
LINE
  5
16B
330
1F
100
AcDbEntity
  8
LAY-1
  6
CONTINUOUS
 62
     3
100
AcDbLine
 10
274.4680519230301
 20
221.0000000000001
 30
0.0
 11
274.4680519230301
 21
235.0
 31
0.0
  0
LINE
  5
16C
330
1F
100
AcDbEntity
  8
LAY-1
  6
CONTINUOUS
 62
     1
100
AcDbLine
 10
275.4150729230302
 20
221.0000000000001
 30
0.0
 11
275.4150729230302
 21
235.0
 31
0.0
  0
LINE
  5
16D
330
1F
100
AcDbEntity
  8
LAY-1
  6
CONTINUOUS
 62
     1
100
AcDbLine
 10
285.5210299230301
 20
221.0000000000001
 30
0.0
 11
285.5210299230301
 21
235.0
 31
0.0
  0
LINE
  5
16E
330
1F
100
AcDbEntity
  8
LAY-1
  6
CONTINUOUS
 62
     3
100
AcDbLine
 10
286.4680519230301
 20
221.0000000000001
 30
0.0
 11
286.4680519230301
 21
235.0
 31
0.0
  0
LINE
  5
16F
330
1F
100
AcDbEntity
  8
LAY-1
  6
CONTINUOUS
 62
     3
100
AcDbLine
 10
328.4876078183901
 20
221.0000000000001
 30
0.0
 11
328.4876078183901
 21
235.0
 31
0.0
  0
LINE
  5
170
330
1F
100
AcDbEntity
  8
LAY-1
  6
CONTINUOUS
 62
     1
100
AcDbLine
 10
329.4346288183901
 20
221.0000000000001
 30
0.0
 11
329.4346288183901
 21
235.0
 31
0.0
  0
LINE
  5
171
330
1F
100
AcDbEntity
  8
LAY-1
  6
CONTINUOUS
 62
     1
100
AcDbLine
 10
339.5405858183901
 20
221.0000000000001
 30
0.0
 11
339.5405858183901
 21
235.0
 31
0.0
  0
LINE
  5
172
330
1F
100
AcDbEntity
  8
LAY-1
  6
CONTINUOUS
 62
     3
100
AcDbLine
 10
340.4876078183901
 20
221.0000000000001
 30
0.0
 11
340.4876078183901
 21
235.0
 31
0.0
  0
LINE
  5
173
330
1F
100
AcDbEntity
  8
LAY-1
  6
EXLTYPE2
 62
     1
100
AcDbLine
 10
334.4876378183898
 20
274.0
 30
0.0
 11
334.4876378183898
 21
185.0
 31
0.0
  0
LINE
  5
174
330
1F
100
AcDbEntity
  8
LAY-1
  6
EXLTYPE2
 62
     1
100
AcDbLine
 10
149.51236218161
 20
274.0
 30
0.0
 11
149.51236218161
 21
185.0
 31
0.0
  0
LINE
  5
175
330
1F
100
AcDbEntity
  8
LAY-1
  6
EXLTYPE2
 62
     1
100
AcDbLine
 10
280.4680819230297
 20
274.0
 30
0.0
 11
280.4680819230297
 21
193.0
 31
0.0
  0
LINE
  5
176
330
1F
100
AcDbEntity
  8
LAY-1
  6
EXLTYPE2
 62
     1
100
AcDbLine
 10
203.53191807697
 20
274.0
 30
0.0
 11
203.53191807697
 21
193.0
 31
0.0
  0
LINE
  5
177
330
1F
100
AcDbEntity
  8
LAY-1
  6
CONTINUOUS
 62
     3
100
AcDbLine
 10
129.9000000000001
 20
50.99999999999983
 30
0.0
 11
129.9000000000001
 21
70.99999999999977
 31
0.0
  0
ARC
  5
178
330
1F
100
AcDbEntity
  8
LAY-1
  6
CONTINUOUS
 62
     3
100
AcDbCircle
 10
131.9000000000001
 20
50.99999999999983
 30
0.0
 40
2.0
100
AcDbArc
 50
180.0
 51
270.0
  0
LINE
  5
179
330
1F
100
AcDbEntity
  8
LAY-1
  6
CONTINUOUS
 62
     3
100
AcDbLine
 10
354.9
 20
50.99999999999994
 30
0.0
 11
354.9
 21
70.99999999999994
 31
0.0
  0
ARC
  5
17A
330
1F
100
AcDbEntity
  8
LAY-1
  6
CONTINUOUS
 62
     3
100
AcDbCircle
 10
352.9
 20
50.99999999999994
 30
0.0
 40
2.0
100
AcDbArc
 50
270.0
 51
0.0
  0
LINE
  5
17B
330
1F
100
AcDbEntity
  8
LAY-1
  6
CONTINUOUS
 62
     3
100
AcDbLine
 10
354.9
 20
70.99999999999994
 30
0.0
 11
129.9000000000001
 21
70.99999999999983
 31
0.0
  0
LINE
  5
17C
330
1F
100
AcDbEntity
  8
LAY-1
  6
CONTINUOUS
 62
     3
100
AcDbLine
 10
131.9000000000001
 20
48.99999999999983
 30
0.0
 11
352.9
 21
48.99999999999994
 31
0.0
  0
LINE
  5
17D
330
1F
100
AcDbEntity
  8
LAY-1
  6
CONTINUOUS
 62
     3
100
AcDbLine
 10
149.5123621816101
 20
45.99999999999983
 30
0.0
 11
138.7623621816101
 21
45.99999999999983
 31
0.0
  0
LINE
  5
17E
330
1F
100
AcDbEntity
  8
LAY-1
  6
CONTINUOUS
 62
     3
100
AcDbLine
 10
138.7623621816101
 20
48.9999999999996
 30
0.0
 11
138.7623621816101
 21
45.99999999999983
 31
0.0
  0
LINE
  5
17F
330
1F
100
AcDbEntity
  8
LAY-1
  6
CONTINUOUS
 62
     3
100
AcDbLine
 10
149.5123621816101
 20
45.99999999999983
 30
0.0
 11
160.2623621816101
 21
45.99999999999983
 31
0.0
  0
LINE
  5
180
330
1F
100
AcDbEntity
  8
LAY-1
  6
CONTINUOUS
 62
     3
100
AcDbLine
 10
160.2623621816101
 20
48.9999999999996
 30
0.0
 11
160.2623621816101
 21
45.99999999999983
 31
0.0
  0
LINE
  5
181
330
1F
100
AcDbEntity
  8
LAY-1
  6
CONTINUOUS
 62
     3
100
AcDbLine
 10
160.4820581816101
 20
45.99999999999983
 30
0.0
 11
138.5426661816101
 21
45.99999999999983
 31
0.0
  0
LINE
  5
182
330
1F
100
AcDbEntity
  8
LAY-1
  6
CONTINUOUS
 62
     3
100
AcDbLine
 10
140.5123321816101
 20
37.99999999999983
 30
0.0
 11
158.5123321816101
 21
37.99999999999983
 31
0.0
  0
LINE
  5
183
330
1F
100
AcDbEntity
  8
LAY-1
  6
CONTINUOUS
 62
     3
100
AcDbLine
 10
158.5123321816101
 20
37.99999999999983
 30
0.0
 11
160.4821201816102
 21
39.13726799999978
 31
0.0
  0
ARC
  5
184
330
1F
100
AcDbEntity
  8
LAY-1
  6
CONTINUOUS
 62
     3
100
AcDbCircle
 10
149.5117221816101
 20
51.7947699999998
 30
0.0
 40
13.794775
100
AcDbArc
 50
246.5742569235564
 51
293.4304589304576
  0
ARC
  5
185
330
1F
100
AcDbEntity
  8
LAY-1
  6
CONTINUOUS
 62
     3
100
AcDbCircle
 10
158.5982081816102
 20
44.26986699999981
 30
0.0
 40
6.271714
100
AcDbArc
 50
234.9443023022118
 51
269.2153144517258
  0
LINE
  5
186
330
1F
100
AcDbEntity
  8
LAY-1
  6
CONTINUOUS
 62
     3
100
AcDbLine
 10
140.5123321816101
 20
37.99999999999983
 30
0.0
 11
138.5425441816102
 21
39.13726799999978
 31
0.0
  0
ARC
  5
187
330
1F
100
AcDbEntity
  8
LAY-1
  6
CONTINUOUS
 62
     3
100
AcDbCircle
 10
140.4264551816101
 20
44.26986699999981
 30
0.0
 40
6.271714
100
AcDbArc
 50
270.7846855482745
 51
305.055697697789
  0
LINE
  5
188
330
1F
100
AcDbEntity
  8
LAY-1
  6
CONTINUOUS
 62
     3
100
AcDbLine
 10
160.4820581816101
 20
45.99999999999983
 30
0.0
 11
160.4820891816101
 21
39.13726799999978
 31
0.0
  0
LINE
  5
189
330
1F
100
AcDbEntity
  8
LAY-1
  6
CONTINUOUS
 62
     3
100
AcDbLine
 10
154.9970731816101
 20
45.99993899999987
 30
0.0
 11
154.9971041816101
 21
39.13726799999978
 31
0.0
  0
LINE
  5
18A
330
1F
100
AcDbEntity
  8
LAY-1
  6
CONTINUOUS
 62
     3
100
AcDbLine
 10
144.0275601816102
 20
45.99993899999987
 30
0.0
 11
144.0275751816101
 21
39.13726799999978
 31
0.0
  0
LINE
  5
18B
330
1F
100
AcDbEntity
  8
LAY-1
  6
CONTINUOUS
 62
     3
100
AcDbLine
 10
138.5425601816102
 20
45.99999999999983
 30
0.0
 11
138.5425751816101
 21
39.13726799999978
 31
0.0
  0
LINE
  5
18C
330
1F
100
AcDbEntity
  8
LAY-1
  6
CONTINUOUS
 62
     3
100
AcDbLine
 10
203.5319180769701
 20
45.99999999999989
 30
0.0
 11
192.7819180769701
 21
45.99999999999989
 31
0.0
  0
LINE
  5
18D
330
1F
100
AcDbEntity
  8
LAY-1
  6
CONTINUOUS
 62
     3
100
AcDbLine
 10
192.7819180769701
 20
48.99999999999966
 30
0.0
 11
192.7819180769701
 21
45.99999999999989
 31
0.0
  0
LINE
  5
18E
330
1F
100
AcDbEntity
  8
LAY-1
  6
CONTINUOUS
 62
     3
100
AcDbLine
 10
203.5319180769701
 20
45.99999999999989
 30
0.0
 11
214.2819180769701
 21
45.99999999999989
 31
0.0
  0
LINE
  5
18F
330
1F
100
AcDbEntity
  8
LAY-1
  6
CONTINUOUS
 62
     3
100
AcDbLine
 10
214.2819180769701
 20
48.99999999999966
 30
0.0
 11
214.2819180769701
 21
45.99999999999989
 31
0.0
  0
LINE
  5
190
330
1F
100
AcDbEntity
  8
LAY-1
  6
CONTINUOUS
 62
     3
100
AcDbLine
 10
214.5016140769701
 20
45.99999999999989
 30
0.0
 11
192.5622220769701
 21
45.99999999999989
 31
0.0
  0
LINE
  5
191
330
1F
100
AcDbEntity
  8
LAY-1
  6
CONTINUOUS
 62
     3
100
AcDbLine
 10
194.5318880769701
 20
37.99999999999989
 30
0.0
 11
212.5318880769701
 21
37.99999999999989
 31
0.0
  0
LINE
  5
192
330
1F
100
AcDbEntity
  8
LAY-1
  6
CONTINUOUS
 62
     3
100
AcDbLine
 10
212.5318880769701
 20
37.99999999999989
 30
0.0
 11
214.5016760769702
 21
39.13726799999984
 31
0.0
  0
ARC
  5
193
330
1F
100
AcDbEntity
  8
LAY-1
  6
CONTINUOUS
 62
     3
100
AcDbCircle
 10
203.5312780769701
 20
51.79476999999986
 30
0.0
 40
13.794775
100
AcDbArc
 50
246.5742569235564
 51
293.4304589304576
  0
ARC
  5
194
330
1F
100
AcDbEntity
  8
LAY-1
  6
CONTINUOUS
 62
     3
100
AcDbCircle
 10
212.6177640769702
 20
44.26986699999986
 30
0.0
 40
6.271714
100
AcDbArc
 50
234.9443023022118
 51
269.2153144517255
  0
LINE
  5
195
330
1F
100
AcDbEntity
  8
LAY-1
  6
CONTINUOUS
 62
     3
100
AcDbLine
 10
194.5318880769701
 20
37.99999999999989
 30
0.0
 11
192.5621000769702
 21
39.13726799999984
 31
0.0
  0
ARC
  5
196
330
1F
100
AcDbEntity
  8
LAY-1
  6
CONTINUOUS
 62
     3
100
AcDbCircle
 10
194.4460110769701
 20
44.26986699999986
 30
0.0
 40
6.271714
100
AcDbArc
 50
270.7846855482746
 51
305.0556976977889
  0
LINE
  5
197
330
1F
100
AcDbEntity
  8
LAY-1
  6
CONTINUOUS
 62
     3
100
AcDbLine
 10
214.5016140769701
 20
45.99999999999989
 30
0.0
 11
214.5016450769701
 21
39.13726799999984
 31
0.0
  0
LINE
  5
198
330
1F
100
AcDbEntity
  8
LAY-1
  6
CONTINUOUS
 62
     3
100
AcDbLine
 10
209.01662907697
 20
45.99993899999993
 30
0.0
 11
209.0166600769701
 21
39.13726799999984
 31
0.0
  0
LINE
  5
199
330
1F
100
AcDbEntity
  8
LAY-1
  6
CONTINUOUS
 62
     3
100
AcDbLine
 10
198.0471160769702
 20
45.99993899999993
 30
0.0
 11
198.0471310769701
 21
39.13726799999984
 31
0.0
  0
LINE
  5
19A
330
1F
100
AcDbEntity
  8
LAY-1
  6
CONTINUOUS
 62
     3
100
AcDbLine
 10
192.5621160769701
 20
45.99999999999989
 30
0.0
 11
192.5621310769701
 21
39.13726799999984
 31
0.0
  0
ARC
  5
19B
330
1F
100
AcDbEntity
  8
LAY-1
  6
CONTINUOUS
 62
     3
100
AcDbCircle
 10
156.5999999999999
 20
40.99999999999983
 30
0.0
 40
4.0
100
AcDbArc
 50
228.5903778907291
 51
327.3072838559916
  0
LINE
  5
19C
330
1F
100
AcDbEntity
  8
LAY-1
  6
CONTINUOUS
 62
     3
100
AcDbLine
 10
334.4876378183898
 20
45.99999999999994
 30
0.0
 11
345.2376378183898
 21
45.99999999999994
 31
0.0
  0
LINE
  5
19D
330
1F
100
AcDbEntity
  8
LAY-1
  6
CONTINUOUS
 62
     3
100
AcDbLine
 10
345.2376378183898
 20
48.99999999999972
 30
0.0
 11
345.2376378183898
 21
45.99999999999994
 31
0.0
  0
LINE
  5
19E
330
1F
100
AcDbEntity
  8
LAY-1
  6
CONTINUOUS
 62
     3
100
AcDbLine
 10
334.4876378183898
 20
45.99999999999994
 30
0.0
 11
323.7376378183898
 21
45.99999999999994
 31
0.0
  0
LINE
  5
19F
330
1F
100
AcDbEntity
  8
LAY-1
  6
CONTINUOUS
 62
     3
100
AcDbLine
 10
323.7376378183898
 20
48.99999999999972
 30
0.0
 11
323.7376378183898
 21
45.99999999999994
 31
0.0
  0
LINE
  5
1A0
330
1F
100
AcDbEntity
  8
LAY-1
  6
CONTINUOUS
 62
     3
100
AcDbLine
 10
323.5179418183898
 20
45.99999999999994
 30
0.0
 11
345.4573338183898
 21
45.99999999999994
 31
0.0
  0
LINE
  5
1A1
330
1F
100
AcDbEntity
  8
LAY-1
  6
CONTINUOUS
 62
     3
100
AcDbLine
 10
343.4876678183898
 20
37.99999999999994
 30
0.0
 11
325.4876678183898
 21
37.99999999999994
 31
0.0
  0
LINE
  5
1A2
330
1F
100
AcDbEntity
  8
LAY-1
  6
CONTINUOUS
 62
     3
100
AcDbLine
 10
325.4876678183898
 20
37.99999999999994
 30
0.0
 11
323.5178798183897
 21
39.13726799999989
 31
0.0
  0
ARC
  5
1A3
330
1F
100
AcDbEntity
  8
LAY-1
  6
CONTINUOUS
 62
     3
100
AcDbCircle
 10
334.4882778183897
 20
51.79476999999991
 30
0.0
 40
13.794775
100
AcDbArc
 50
246.5695410695425
 51
293.4257430764436
  0
ARC
  5
1A4
330
1F
100
AcDbEntity
  8
LAY-1
  6
CONTINUOUS
 62
     3
100
AcDbCircle
 10
325.4017918183897
 20
44.26986699999992
 30
0.0
 40
6.271714
100
AcDbArc
 50
270.7846855482745
 51
305.0556976977883
  0
LINE
  5
1A5
330
1F
100
AcDbEntity
  8
LAY-1
  6
CONTINUOUS
 62
     3
100
AcDbLine
 10
343.4876678183898
 20
37.99999999999994
 30
0.0
 11
345.4574558183897
 21
39.13726799999989
 31
0.0
  0
ARC
  5
1A6
330
1F
100
AcDbEntity
  8
LAY-1
  6
CONTINUOUS
 62
     3
100
AcDbCircle
 10
343.5735448183898
 20
44.26986699999992
 30
0.0
 40
6.271714
100
AcDbArc
 50
234.944302302211
 51
269.2153144517252
  0
LINE
  5
1A7
330
1F
100
AcDbEntity
  8
LAY-1
  6
CONTINUOUS
 62
     3
100
AcDbLine
 10
323.5179418183898
 20
45.99999999999994
 30
0.0
 11
323.5179108183897
 21
39.13726799999989
 31
0.0
  0
LINE
  5
1A8
330
1F
100
AcDbEntity
  8
LAY-1
  6
CONTINUOUS
 62
     3
100
AcDbLine
 10
329.0029268183898
 20
45.99993899999998
 30
0.0
 11
329.0028958183898
 21
39.13726799999989
 31
0.0
  0
LINE
  5
1A9
330
1F
100
AcDbEntity
  8
LAY-1
  6
CONTINUOUS
 62
     3
100
AcDbLine
 10
339.9724398183897
 20
45.99993899999998
 30
0.0
 11
339.9724248183898
 21
39.13726799999989
 31
0.0
  0
LINE
  5
1AA
330
1F
100
AcDbEntity
  8
LAY-1
  6
CONTINUOUS
 62
     3
100
AcDbLine
 10
345.4574398183897
 20
45.99999999999994
 30
0.0
 11
345.4574248183898
 21
39.13726799999989
 31
0.0
  0
LINE
  5
1AB
330
1F
100
AcDbEntity
  8
LAY-1
  6
CONTINUOUS
 62
     3
100
AcDbLine
 10
280.4680819230298
 20
45.99999999999989
 30
0.0
 11
291.2180819230298
 21
45.99999999999989
 31
0.0
  0
LINE
  5
1AC
330
1F
100
AcDbEntity
  8
LAY-1
  6
CONTINUOUS
 62
     3
100
AcDbLine
 10
291.2180819230298
 20
48.99999999999966
 30
0.0
 11
291.2180819230298
 21
45.99999999999989
 31
0.0
  0
LINE
  5
1AD
330
1F
100
AcDbEntity
  8
LAY-1
  6
CONTINUOUS
 62
     3
100
AcDbLine
 10
280.4680819230298
 20
45.99999999999989
 30
0.0
 11
269.7180819230298
 21
45.99999999999989
 31
0.0
  0
LINE
  5
1AE
330
1F
100
AcDbEntity
  8
LAY-1
  6
CONTINUOUS
 62
     3
100
AcDbLine
 10
269.7180819230298
 20
48.99999999999966
 30
0.0
 11
269.7180819230298
 21
45.99999999999989
 31
0.0
  0
LINE
  5
1AF
330
1F
100
AcDbEntity
  8
LAY-1
  6
CONTINUOUS
 62
     3
100
AcDbLine
 10
269.4983859230298
 20
45.99999999999989
 30
0.0
 11
291.4377779230298
 21
45.99999999999989
 31
0.0
  0
LINE
  5
1B0
330
1F
100
AcDbEntity
  8
LAY-1
  6
CONTINUOUS
 62
     3
100
AcDbLine
 10
289.4681119230298
 20
37.99999999999989
 30
0.0
 11
271.4681119230298
 21
37.99999999999989
 31
0.0
  0
LINE
  5
1B1
330
1F
100
AcDbEntity
  8
LAY-1
  6
CONTINUOUS
 62
     3
100
AcDbLine
 10
271.4681119230298
 20
37.99999999999989
 30
0.0
 11
269.4983239230297
 21
39.13726799999984
 31
0.0
  0
ARC
  5
1B2
330
1F
100
AcDbEntity
  8
LAY-1
  6
CONTINUOUS
 62
     3
100
AcDbCircle
 10
280.4687219230298
 20
51.79476999999986
 30
0.0
 40
13.794775
100
AcDbArc
 50
246.5695410695425
 51
293.4257430764436
  0
ARC
  5
1B3
330
1F
100
AcDbEntity
  8
LAY-1
  6
CONTINUOUS
 62
     3
100
AcDbCircle
 10
271.3822359230297
 20
44.26986699999986
 30
0.0
 40
6.271714
100
AcDbArc
 50
270.7846855482745
 51
305.0556976977884
  0
LINE
  5
1B4
330
1F
100
AcDbEntity
  8
LAY-1
  6
CONTINUOUS
 62
     3
100
AcDbLine
 10
289.4681119230298
 20
37.99999999999989
 30
0.0
 11
291.4378999230297
 21
39.13726799999984
 31
0.0
  0
ARC
  5
1B5
330
1F
100
AcDbEntity
  8
LAY-1
  6
CONTINUOUS
 62
     3
100
AcDbCircle
 10
289.5539889230298
 20
44.26986699999986
 30
0.0
 40
6.271714
100
AcDbArc
 50
234.944302302211
 51
269.2153144517252
  0
LINE
  5
1B6
330
1F
100
AcDbEntity
  8
LAY-1
  6
CONTINUOUS
 62
     3
100
AcDbLine
 10
269.4983859230298
 20
45.99999999999989
 30
0.0
 11
269.4983549230298
 21
39.13726799999984
 31
0.0
  0
LINE
  5
1B7
330
1F
100
AcDbEntity
  8
LAY-1
  6
CONTINUOUS
 62
     3
100
AcDbLine
 10
274.9833709230298
 20
45.99993899999993
 30
0.0
 11
274.9833399230298
 21
39.13726799999984
 31
0.0
  0
LINE
  5
1B8
330
1F
100
AcDbEntity
  8
LAY-1
  6
CONTINUOUS
 62
     3
100
AcDbLine
 10
285.9528839230297
 20
45.99993899999993
 30
0.0
 11
285.9528689230298
 21
39.13726799999984
 31
0.0
  0
LINE
  5
1B9
330
1F
100
AcDbEntity
  8
LAY-1
  6
CONTINUOUS
 62
     3
100
AcDbLine
 10
291.4378839230297
 20
45.99999999999989
 30
0.0
 11
291.4378689230298
 21
39.13726799999984
 31
0.0
  0
ARC
  5
1BA
330
1F
100
AcDbEntity
  8
LAY-1
  6
CONTINUOUS
 62
     3
100
AcDbCircle
 10
327.4
 20
40.99999999999994
 30
0.0
 40
4.0
100
AcDbArc
 50
212.6927161440084
 51
311.409622109271
  0
LINE
  5
1BB
330
1F
100
AcDbEntity
  8
LAY-1
  6
CONTINUOUS
 62
     3
100
AcDbLine
 10
143.5123321816102
 20
84.99999999999977
 30
0.0
 11
143.5123321816102
 21
70.99999999999983
 31
0.0
  0
LINE
  5
1BC
330
1F
100
AcDbEntity
  8
LAY-1
  6
CONTINUOUS
 62
     1
100
AcDbLine
 10
144.4593531816101
 20
84.99999999999977
 30
0.0
 11
144.4593531816101
 21
70.99999999999983
 31
0.0
  0
LINE
  5
1BD
330
1F
100
AcDbEntity
  8
LAY-1
  6
CONTINUOUS
 62
     1
100
AcDbLine
 10
154.5653101816101
 20
84.99999999999977
 30
0.0
 11
154.5653101816101
 21
70.99999999999983
 31
0.0
  0
LINE
  5
1BE
330
1F
100
AcDbEntity
  8
LAY-1
  6
CONTINUOUS
 62
     3
100
AcDbLine
 10
155.5123321816102
 20
84.99999999999977
 30
0.0
 11
155.5123321816102
 21
70.99999999999983
 31
0.0
  0
LINE
  5
1BF
330
1F
100
AcDbEntity
  8
LAY-1
  6
CONTINUOUS
 62
     3
100
AcDbLine
 10
197.5318880769701
 20
84.99999999999977
 30
0.0
 11
197.5318880769701
 21
70.99999999999989
 31
0.0
  0
LINE
  5
1C0
330
1F
100
AcDbEntity
  8
LAY-1
  6
CONTINUOUS
 62
     1
100
AcDbLine
 10
198.4789090769701
 20
84.99999999999983
 30
0.0
 11
198.4789090769702
 21
70.99999999999989
 31
0.0
  0
LINE
  5
1C1
330
1F
100
AcDbEntity
  8
LAY-1
  6
CONTINUOUS
 62
     1
100
AcDbLine
 10
208.5848660769701
 20
84.99999999999977
 30
0.0
 11
208.5848660769702
 21
70.99999999999989
 31
0.0
  0
LINE
  5
1C2
330
1F
100
AcDbEntity
  8
LAY-1
  6
CONTINUOUS
 62
     3
100
AcDbLine
 10
209.5318880769701
 20
84.99999999999977
 30
0.0
 11
209.5318880769701
 21
70.99999999999989
 31
0.0
  0
LINE
  5
1C3
330
1F
100
AcDbEntity
  8
LAY-1
  6
CONTINUOUS
 62
     3
100
AcDbLine
 10
274.4680519230301
 20
84.99999999999989
 30
0.0
 11
274.4680519230301
 21
70.99999999999989
 31
0.0
  0
LINE
  5
1C4
330
1F
100
AcDbEntity
  8
LAY-1
  6
CONTINUOUS
 62
     1
100
AcDbLine
 10
275.4150729230302
 20
84.99999999999989
 30
0.0
 11
275.4150729230302
 21
70.99999999999989
 31
0.0
  0
LINE
  5
1C5
330
1F
100
AcDbEntity
  8
LAY-1
  6
CONTINUOUS
 62
     1
100
AcDbLine
 10
285.5210299230301
 20
84.99999999999983
 30
0.0
 11
285.5210299230302
 21
70.99999999999989
 31
0.0
  0
LINE
  5
1C6
330
1F
100
AcDbEntity
  8
LAY-1
  6
CONTINUOUS
 62
     3
100
AcDbLine
 10
286.4680519230301
 20
84.99999999999983
 30
0.0
 11
286.4680519230301
 21
70.99999999999989
 31
0.0
  0
LINE
  5
1C7
330
1F
100
AcDbEntity
  8
LAY-1
  6
CONTINUOUS
 62
     3
100
AcDbLine
 10
328.4876078183901
 20
84.99999999999989
 30
0.0
 11
328.4876078183901
 21
70.99999999999994
 31
0.0
  0
LINE
  5
1C8
330
1F
100
AcDbEntity
  8
LAY-1
  6
CONTINUOUS
 62
     1
100
AcDbLine
 10
329.4346288183902
 20
84.99999999999989
 30
0.0
 11
329.4346288183902
 21
70.99999999999994
 31
0.0
  0
LINE
  5
1C9
330
1F
100
AcDbEntity
  8
LAY-1
  6
CONTINUOUS
 62
     1
100
AcDbLine
 10
339.5405858183902
 20
84.99999999999989
 30
0.0
 11
339.5405858183902
 21
70.99999999999994
 31
0.0
  0
LINE
  5
1CA
330
1F
100
AcDbEntity
  8
LAY-1
  6
CONTINUOUS
 62
     3
100
AcDbLine
 10
340.4876078183901
 20
84.99999999999989
 30
0.0
 11
340.4876078183901
 21
70.99999999999994
 31
0.0
  0
LINE
  5
1CB
330
1F
100
AcDbEntity
  8
LAY-1
  6
EXLTYPE2
 62
     1
100
AcDbLine
 10
149.5123621816101
 20
31.99999999999983
 30
0.0
 11
149.51236218161
 21
120.9999999999998
 31
0.0
  0
LINE
  5
1CC
330
1F
100
AcDbEntity
  8
LAY-1
  6
EXLTYPE2
 62
     1
100
AcDbLine
 10
203.5319180769701
 20
31.99999999999989
 30
0.0
 11
203.5319180769701
 21
112.9999999999999
 31
0.0
  0
LINE
  5
1CD
330
1F
100
AcDbEntity
  8
LAY-1
  6
EXLTYPE2
 62
     1
100
AcDbLine
 10
280.4680819230298
 20
31.99999999999989
 30
0.0
 11
280.4680819230297
 21
112.9999999999999
 31
0.0
  0
LINE
  5
1CE
330
1F
100
AcDbEntity
  8
LAY-1
  6
EXLTYPE2
 62
     1
100
AcDbLine
 10
334.4876378183898
 20
31.99999999999994
 30
0.0
 11
334.4876378183898
 21
120.9999999999999
 31
0.0
  0
LINE
  5
1CF
330
1F
100
AcDbEntity
  8
LAY-1
  6
CONTINUOUS
 62
     3
100
AcDbLine
 10
150.51236218161
 20
45.99999999999983
 30
0.0
 11
148.51236218161
 21
48.99999999999983
 31
0.0
  0
LINE
  5
1D0
330
1F
100
AcDbEntity
  8
LAY-1
  6
CONTINUOUS
 62
     3
100
AcDbLine
 10
204.5319180769701
 20
45.99999999999989
 30
0.0
 11
202.5319180769701
 21
48.99999999999989
 31
0.0
  0
LINE
  5
1D1
330
1F
100
AcDbEntity
  8
LAY-1
  6
CONTINUOUS
 62
     3
100
AcDbLine
 10
281.4680819230298
 20
45.99999999999989
 30
0.0
 11
279.4680819230298
 21
48.99999999999989
 31
0.0
  0
LINE
  5
1D2
330
1F
100
AcDbEntity
  8
LAY-1
  6
CONTINUOUS
 62
     3
100
AcDbLine
 10
335.4876378183898
 20
45.99999999999994
 30
0.0
 11
333.4876378183898
 21
48.99999999999994
 31
0.0
  0
LINE
  5
1D3
330
1F
100
AcDbEntity
  8
LAY-1
  6
EXLTYPE2
 62
     1
100
AcDbLine
 10
407.0
 20
240.5000000000002
 30
0.0
 11
377.0
 21
240.5000000000002
 31
0.0
  0
LINE
  5
1D4
330
1F
100
AcDbEntity
  8
LAY-1
  6
EXLTYPE2
 62
     1
100
AcDbLine
 10
407.0000000000001
 20
65.49999999999983
 30
0.0
 11
377.0000000000001
 21
65.49999999999977
 31
0.0
  0
LINE
  5
1D5
330
1F
100
AcDbEntity
  8
LAY-1
  6
EXLTYPE2
 62
     1
100
AcDbLine
 10
76.99999999999966
 20
65.49999999999989
 30
0.0
 11
106.9999999999997
 21
65.49999999999983
 31
0.0
  0
LINE
  5
1D6
330
1F
100
AcDbEntity
  8
LAY-1
  6
EXLTYPE2
 62
     1
100
AcDbLine
 10
76.99999999999977
 20
240.5000000000002
 30
0.0
 11
106.9999999999998
 21
240.5000000000002
 31
0.0
  0
LINE
  5
1D7
330
1F
100
AcDbEntity
  8
LAY-1
  6
EXLTYPE2
 62
     1
100
AcDbLine
 10
73.0
 20
153.0000000000001
 30
0.0
 11
412.0000000000001
 21
153.0000000000002
 31
0.0
  0
LINE
  5
1D8
330
1F
100
AcDbEntity
  8
LAY-1
  6
EXLTYPE2
 62
     1
100
AcDbLine
 10
241.9999999999999
 20
267.0
 30
0.0
 11
241.9999999999999
 21
40.0
 31
0.0
  0
LINE
  5
1D9
330
1F
100
AcDbEntity
  8
LAY-1
  6
CONTINUOUS
 62
     3
100
AcDbLine
 10
84.0
 20
516.5
 30
0.0
 11
82.0
 21
516.5
 31
0.0
  0
LINE
  5
1DA
330
1F
100
AcDbEntity
  8
LAY-1
  6
CONTINUOUS
 62
     3
100
AcDbLine
 10
100.0
 20
546.0
 30
0.0
 11
84.0
 21
546.0
 31
0.0
  0
LINE
  5
1DB
330
1F
100
AcDbEntity
  8
LAY-1
  6
CONTINUOUS
 62
     3
100
AcDbLine
 10
107.0054100676994
 20
500.4078613482502
 30
0.0
 11
122.0
 21
497.0
 31
0.0
  0
ARC
  5
1DC
330
1F
100
AcDbEntity
  8
LAY-1
  6
CONTINUOUS
 62
     3
100
AcDbCircle
 10
109.0
 20
509.1840570503733
 30
0.0
 40
9.0
100
AcDbArc
 50
180.0
 51
257.195733934713
  0
LINE
  5
1DD
330
1F
100
AcDbEntity
  8
LAY-1
  6
CONTINUOUS
 62
     3
100
AcDbLine
 10
400.0
 20
516.5
 30
0.0
 11
402.0
 21
516.5
 31
0.0
  0
LINE
  5
1DE
330
1F
100
AcDbEntity
  8
LAY-1
  6
CONTINUOUS
 62
     3
100
AcDbLine
 10
384.0
 20
546.0
 30
0.0
 11
400.0
 21
546.0
 31
0.0
  0
LINE
  5
1DF
330
1F
100
AcDbEntity
  8
LAY-1
  6
CONTINUOUS
 62
     3
100
AcDbLine
 10
376.9945899323006
 20
500.4078613482502
 30
0.0
 11
362.0
 21
497.0
 31
0.0
  0
ARC
  5
1E0
330
1F
100
AcDbEntity
  8
LAY-1
  6
CONTINUOUS
 62
     3
100
AcDbCircle
 10
375.0
 20
509.1840570503733
 30
0.0
 40
9.0
100
AcDbArc
 50
282.8042660652872
 51
0.0
  0
LINE
  5
1E1
330
1F
100
AcDbEntity
  8
LAY-1
  6
CONTINUOUS
 62
     3
100
AcDbLine
 10
84.0
 20
365.5
 30
0.0
 11
82.0
 21
365.5
 31
0.0
  0
LINE
  5
1E2
330
1F
100
AcDbEntity
  8
LAY-1
  6
CONTINUOUS
 62
     3
100
AcDbLine
 10
100.0
 20
336.0000000000001
 30
0.0
 11
84.0
 21
336.0000000000001
 31
0.0
  0
LINE
  5
1E3
330
1F
100
AcDbEntity
  8
LAY-1
  6
CONTINUOUS
 62
     3
100
AcDbLine
 10
107.0054100676994
 20
381.5921386517498
 30
0.0
 11
122.0
 21
385.0
 31
0.0
  0
ARC
  5
1E4
330
1F
100
AcDbEntity
  8
LAY-1
  6
CONTINUOUS
 62
     3
100
AcDbCircle
 10
109.0
 20
372.8159429496268
 30
0.0
 40
9.0
100
AcDbArc
 50
102.8042660652872
 51
180.0000000000007
  0
LINE
  5
1E5
330
1F
100
AcDbEntity
  8
LAY-1
  6
CONTINUOUS
 62
     3
100
AcDbLine
 10
400.0
 20
365.5000000000002
 30
0.0
 11
402.0
 21
365.5000000000002
 31
0.0
  0
LINE
  5
1E6
330
1F
100
AcDbEntity
  8
LAY-1
  6
CONTINUOUS
 62
     3
100
AcDbLine
 10
384.0000000000002
 20
336.0000000000002
 30
0.0
 11
400.0000000000002
 21
336.0000000000002
 31
0.0
  0
LINE
  5
1E7
330
1F
100
AcDbEntity
  8
LAY-1
  6
CONTINUOUS
 62
     3
100
AcDbLine
 10
376.9945899323009
 20
381.59213865175
 30
0.0
 11
362.0
 21
385.0000000000002
 31
0.0
  0
ARC
  5
1E8
330
1F
100
AcDbEntity
  8
LAY-1
  6
CONTINUOUS
 62
     3
100
AcDbCircle
 10
375.0
 20
372.8159429496269
 30
0.0
 40
9.0
100
AcDbArc
 50
0.0
 51
77.19573393471224
  0
LINE
  5
1E9
330
1F
100
AcDbEntity
  8
LAY-1
  6
CONTINUOUS
 62
     3
100
AcDbLine
 10
82.0
 20
365.5
 30
0.0
 11
82.0
 21
516.5
 31
0.0
  0
LINE
  5
1EA
330
1F
100
AcDbEntity
  8
LAY-1
  6
CONTINUOUS
 62
     3
100
AcDbLine
 10
402.0
 20
516.5
 30
0.0
 11
402.0
 21
365.5
 31
0.0
  0
LINE
  5
1EB
330
1F
100
AcDbEntity
  8
LAY-1
  6
EXLTYPE6
 62
     1
100
AcDbLine
 10
218.0
 20
494.0
 30
0.0
 11
186.0
 21
494.0
 31
0.0
  0
LINE
  5
1EC
330
1F
100
AcDbEntity
  8
LAY-1
  6
EXLTYPE6
 62
     1
100
AcDbLine
 10
201.9999999999995
 20
485.0
 30
0.0
 11
201.9999999999995
 21
505.0
 31
0.0
  0
CIRCLE
  5
1ED
330
1F
100
AcDbEntity
  8
LAY-1
  6
CONTINUOUS
 62
     3
100
AcDbCircle
 10
202.0
 20
494.0
 30
0.0
 40
3.0
  0
LINE
  5
1EE
330
1F
100
AcDbEntity
  8
LAY-1
  6
CONTINUOUS
 62
     3
100
AcDbLine
 10
207.9999999999995
 20
491.0
 30
0.0
 11
207.9999999999995
 21
510.64373625819
 31
0.0
  0
LINE
  5
1EF
330
1F
100
AcDbEntity
  8
LAY-1
  6
CONTINUOUS
 62
     3
100
AcDbLine
 10
204.9999999999995
 20
488.0
 30
0.0
 11
194.0
 21
488.0
 31
0.0
  0
ARC
  5
1F0
330
1F
100
AcDbEntity
  8
LAY-1
  6
CONTINUOUS
 62
     3
100
AcDbCircle
 10
204.9999999999995
 20
491.0
 30
0.0
 40
3.0
100
AcDbArc
 50
270.0
 51
0.0
  0
ARC
  5
1F1
330
1F
100
AcDbEntity
  8
LAY-1
  6
CONTINUOUS
 62
     3
100
AcDbCircle
 10
242.0
 20
441.0
 30
0.0
 40
77.5
100
AcDbArc
 50
231.7309633294566
 51
116.0215824290526
  0
LINE
  5
1F2
330
1F
100
AcDbEntity
  8
LAY-1
  6
CONTINUOUS
 62
     3
100
AcDbLine
 10
193.9999999999995
 20
488.0
 30
0.0
 11
193.9999999999998
 21
380.1538826218141
 31
0.0
  0
LINE
  5
1F3
330
1F
100
AcDbEntity
  8
LAY-1
  6
CONTINUOUS
 62
     3
100
AcDbLine
 10
145.0051547761
 20
497.0
 30
0.0
 11
122.0000000000005
 21
497.0
 31
0.0
  0
LINE
  5
1F4
330
1F
100
AcDbEntity
  8
LAY-1
  6
CONTINUOUS
 62
     3
100
AcDbLine
 10
145.0051547761
 20
385.0000000000001
 30
0.0
 11
122.0000000000005
 21
385.0000000000001
 31
0.0
  0
LINE
  5
1F5
330
1F
100
AcDbEntity
  8
LAY-1
  6
CONTINUOUS
 62
     3
100
AcDbLine
 10
100.0
 20
336.0
 30
0.0
 11
100.0
 21
546.0
 31
0.0
  0
LINE
  5
1F6
330
1F
100
AcDbEntity
  8
LAY-1
  6
CONTINUOUS
 62
     3
100
AcDbLine
 10
84.0
 20
336.0
 30
0.0
 11
84.0
 21
546.0
 31
0.0
  0
LINE
  5
1F7
330
1F
100
AcDbEntity
  8
LAY-1
  6
CONTINUOUS
 62
     3
100
AcDbLine
 10
384.0
 20
336.0
 30
0.0
 11
384.0
 21
546.0
 31
0.0
  0
LINE
  5
1F8
330
1F
100
AcDbEntity
  8
LAY-1
  6
CONTINUOUS
 62
     3
100
AcDbLine
 10
400.0
 20
336.0
 30
0.0
 11
400.0
 21
546.0
 31
0.0
  0
LINE
  5
1F9
330
1F
100
AcDbEntity
  8
LAY-1
  6
CONTINUOUS
 62
     3
100
AcDbLine
 10
338.9948452239
 20
385.0000000000001
 30
0.0
 11
362.0
 21
385.0000000000001
 31
0.0
  0
LINE
  5
1FA
330
1F
100
AcDbEntity
  8
LAY-1
  6
CONTINUOUS
 62
     3
100
AcDbLine
 10
338.9948452239
 20
497.0
 30
0.0
 11
362.0
 21
497.0
 31
0.0
  0
CIRCLE
  5
1FB
330
1F
100
AcDbEntity
  8
LAY-1
  6
CONTINUOUS
 62
     3
100
AcDbCircle
 10
241.8
 20
441.0
 30
0.0
 40
112.5
  0
CIRCLE
  5
1FC
330
1F
100
AcDbEntity
  8
LAY-1
  6
CONTINUOUS
 62
     3
100
AcDbCircle
 10
241.8
 20
441.0
 30
0.0
 40
77.5
  0
LINE
  5
1FD
330
1F
100
AcDbEntity
  8
LAY-1
  6
EXLTYPE2
 62
     1
100
AcDbLine
 10
345.7364474075214
 20
484.0518861410687
 30
0.0
 11
318.9439409646938
 21
472.9540666024818
 31
0.0
  0
LINE
  5
1FE
330
1F
100
AcDbEntity
  8
LAY-1
  6
EXLTYPE2
 62
     1
100
AcDbLine
 10
284.8518861410764
 20
544.9364474075182
 30
0.0
 11
273.7540666024881
 21
518.1439409646912
 31
0.0
  0
LINE
  5
1FF
330
1F
100
AcDbEntity
  8
LAY-1
  6
EXLTYPE2
 62
     1
100
AcDbLine
 10
284.8518861410764
 20
337.0635525924818
 30
0.0
 11
273.7540666024881
 21
363.8560590353089
 31
0.0
  0
LINE
  5
200
330
1F
100
AcDbEntity
  8
LAY-1
  6
EXLTYPE2
 62
     1
100
AcDbLine
 10
345.7364474075214
 20
397.9481138589313
 30
0.0
 11
318.9439409646938
 21
409.0459333975182
 31
0.0
  0
LINE
  5
201
330
1F
100
AcDbEntity
  8
LAY-1
  6
EXLTYPE2
 62
     1
100
AcDbLine
 10
198.7481138589235
 20
544.9364474075182
 30
0.0
 11
209.8459333975119
 21
518.1439409646912
 31
0.0
  0
LINE
  5
202
330
1F
100
AcDbEntity
  8
LAY-1
  6
EXLTYPE2
 62
     1
100
AcDbLine
 10
137.8635525924786
 20
484.0518861410687
 30
0.0
 11
164.6560590353063
 21
472.9540666024818
 31
0.0
  0
LINE
  5
203
330
1F
100
AcDbEntity
  8
LAY-1
  6
EXLTYPE2
 62
     1
100
AcDbLine
 10
137.8635525924786
 20
397.9481138589313
 30
0.0
 11
164.6560590353063
 21
409.0459333975182
 31
0.0
  0
LINE
  5
204
330
1F
100
AcDbEntity
  8
LAY-1
  6
EXLTYPE2
 62
     1
100
AcDbLine
 10
198.7481138589235
 20
337.0635525924818
 30
0.0
 11
209.8459333975118
 21
363.8560590353089
 31
0.0
  0
LINE
  5
205
330
1F
100
AcDbEntity
  8
LAY-1
  6
CONTINUOUS
 62
     3
100
AcDbLine
 10
330.9999999999998
 20
453.5
 30
0.0
 11
323.0
 21
453.5
 31
0.0
  0
LINE
  5
206
330
1F
100
AcDbEntity
  8
LAY-1
  6
CONTINUOUS
 62
     3
100
AcDbLine
 10
330.9999999999998
 20
447.5
 30
0.0
 11
323.0
 21
447.5
 31
0.0
  0
LINE
  5
207
330
1F
100
AcDbEntity
  8
LAY-1
  6
CONTINUOUS
 62
     3
100
AcDbLine
 10
330.9999999999998
 20
434.5
 30
0.0
 11
323.0
 21
434.5
 31
0.0
  0
LINE
  5
208
330
1F
100
AcDbEntity
  8
LAY-1
  6
CONTINUOUS
 62
     3
100
AcDbLine
 10
330.9999999999998
 20
428.5
 30
0.0
 11
323.0
 21
428.5
 31
0.0
  0
LINE
  5
209
330
1F
100
AcDbEntity
  8
LAY-1
  6
CONTINUOUS
 62
     3
100
AcDbLine
 10
330.9999999999998
 20
447.5
 30
0.0
 11
330.9999999999998
 21
453.5
 31
0.0
  0
LINE
  5
20A
330
1F
100
AcDbEntity
  8
LAY-1
  6
CONTINUOUS
 62
     3
100
AcDbLine
 10
323.0
 20
447.5
 30
0.0
 11
323.0
 21
453.5
 31
0.0
  0
LINE
  5
20B
330
1F
100
AcDbEntity
  8
LAY-1
  6
CONTINUOUS
 62
     3
100
AcDbLine
 10
330.9999999999998
 20
428.5
 30
0.0
 11
330.9999999999998
 21
434.5
 31
0.0
  0
LINE
  5
20C
330
1F
100
AcDbEntity
  8
LAY-1
  6
CONTINUOUS
 62
     3
100
AcDbLine
 10
323.0
 20
428.5
 30
0.0
 11
323.0
 21
434.5
 31
0.0
  0
LINE
  5
20D
330
1F
100
AcDbEntity
  8
LAY-1
  6
CONTINUOUS
 62
     3
100
AcDbLine
 10
153.0000000000003
 20
453.5000000000001
 30
0.0
 11
161.0000000000001
 21
453.5
 31
0.0
  0
LINE
  5
20E
330
1F
100
AcDbEntity
  8
LAY-1
  6
CONTINUOUS
 62
     3
100
AcDbLine
 10
153.0000000000003
 20
447.5000000000001
 30
0.0
 11
161.0000000000001
 21
447.5
 31
0.0
  0
LINE
  5
20F
330
1F
100
AcDbEntity
  8
LAY-1
  6
CONTINUOUS
 62
     3
100
AcDbLine
 10
153.0000000000003
 20
434.5000000000001
 30
0.0
 11
161.0000000000001
 21
434.5000000000001
 31
0.0
  0
LINE
  5
210
330
1F
100
AcDbEntity
  8
LAY-1
  6
CONTINUOUS
 62
     3
100
AcDbLine
 10
153.0000000000003
 20
428.5000000000001
 30
0.0
 11
161.0000000000001
 21
428.5000000000001
 31
0.0
  0
LINE
  5
211
330
1F
100
AcDbEntity
  8
LAY-1
  6
CONTINUOUS
 62
     3
100
AcDbLine
 10
153.0000000000003
 20
447.5000000000001
 30
0.0
 11
153.0000000000003
 21
453.5000000000001
 31
0.0
  0
LINE
  5
212
330
1F
100
AcDbEntity
  8
LAY-1
  6
CONTINUOUS
 62
     3
100
AcDbLine
 10
161.0000000000001
 20
447.5
 30
0.0
 11
161.0000000000001
 21
453.5
 31
0.0
  0
LINE
  5
213
330
1F
100
AcDbEntity
  8
LAY-1
  6
CONTINUOUS
 62
     3
100
AcDbLine
 10
153.0000000000003
 20
428.5000000000001
 30
0.0
 11
153.0000000000003
 21
434.5000000000001
 31
0.0
  0
LINE
  5
214
330
1F
100
AcDbEntity
  8
LAY-1
  6
CONTINUOUS
 62
     3
100
AcDbLine
 10
161.0000000000001
 20
428.5000000000001
 30
0.0
 11
161.0000000000001
 21
434.5000000000001
 31
0.0
  0
LINE
  5
215
330
1F
100
AcDbEntity
  8
LAY-1
  6
CONTINUOUS
 62
     3
100
AcDbLine
 10
209.0164287634901
 20
542.8879532511307
 30
0.0
 11
198.0467787634901
 21
542.8879532511307
 31
0.0
  0
LINE
  5
216
330
1F
100
AcDbEntity
  8
LAY-1
  6
CONTINUOUS
 62
     3
100
AcDbLine
 10
198.0469007634902
 20
523.8879532511307
 30
0.0
 11
209.0164287634902
 21
523.8879532511307
 31
0.0
  0
LINE
  5
217
330
1F
100
AcDbEntity
  8
LAY-1
  6
CONTINUOUS
 62
     3
100
AcDbLine
 10
214.5014147634902
 20
533.3880142511308
 30
0.0
 11
209.0164287634902
 21
523.8879532511307
 31
0.0
  0
LINE
  5
218
330
1F
100
AcDbEntity
  8
LAY-1
  6
CONTINUOUS
 62
     3
100
AcDbLine
 10
214.5014147634902
 20
533.3880142511308
 30
0.0
 11
209.0164287634901
 21
542.8880142511308
 31
0.0
  0
LINE
  5
219
330
1F
100
AcDbEntity
  8
LAY-1
  6
CONTINUOUS
 62
     3
100
AcDbLine
 10
198.0467787634901
 20
542.8880142511307
 30
0.0
 11
192.5618997634901
 21
533.3879532511307
 31
0.0
  0
LINE
  5
21A
330
1F
100
AcDbEntity
  8
LAY-1
  6
CONTINUOUS
 62
     3
100
AcDbLine
 10
192.5620067634901
 20
533.3879532511307
 30
0.0
 11
198.0469007634902
 21
523.8879532511307
 31
0.0
  0
CIRCLE
  5
21B
330
1F
100
AcDbEntity
  8
LAY-1
  6
CONTINUOUS
 62
     3
100
AcDbCircle
 10
203.5316567634901
 20
533.3879532511307
 30
0.0
 40
9.0
  0
ARC
  5
21C
330
1F
100
AcDbEntity
  8
LAY-1
  6
CONTINUOUS
 62
     3
100
AcDbCircle
 10
203.5316567634902
 20
533.3879532511307
 30
0.0
 40
10.75
100
AcDbArc
 50
242.0945272089269
 51
297.9054727910738
  0
ARC
  5
21D
330
1F
100
AcDbEntity
  8
LAY-1
  6
CONTINUOUS
 62
     3
100
AcDbCircle
 10
203.5316567634902
 20
533.3879532511307
 30
0.0
 40
10.75
100
AcDbArc
 50
302.0940295353584
 51
357.9048557042461
  0
ARC
  5
21E
330
1F
100
AcDbEntity
  8
LAY-1
  6
CONTINUOUS
 62
     3
100
AcDbCircle
 10
203.5316567634902
 20
533.3879532511307
 30
0.0
 40
10.75
100
AcDbArc
 50
2.09582462473435
 51
57.90560874879695
  0
ARC
  5
21F
330
1F
100
AcDbEntity
  8
LAY-1
  6
CONTINUOUS
 62
     3
100
AcDbCircle
 10
203.5316567634902
 20
533.3879532511307
 30
0.0
 40
10.75
100
AcDbArc
 50
62.09452720892694
 51
117.9054727910737
  0
ARC
  5
220
330
1F
100
AcDbEntity
  8
LAY-1
  6
CONTINUOUS
 62
     3
100
AcDbCircle
 10
203.5316567634902
 20
533.3879532511307
 30
0.0
 40
10.75
100
AcDbArc
 50
122.0953786707207
 51
177.9044745536329
  0
ARC
  5
221
330
1F
100
AcDbEntity
  8
LAY-1
  6
CONTINUOUS
 62
     3
100
AcDbCircle
 10
203.5316567634902
 20
533.3879532511307
 30
0.0
 40
10.75
100
AcDbArc
 50
182.0944496664564
 51
237.9061514190196
  0
LINE
  5
222
330
1F
100
AcDbEntity
  8
LAY-1
  6
CONTINUOUS
 62
     3
100
AcDbLine
 10
285.5531152365102
 20
542.8879532511307
 30
0.0
 11
274.5834652365102
 21
542.8879532511307
 31
0.0
  0
LINE
  5
223
330
1F
100
AcDbEntity
  8
LAY-1
  6
CONTINUOUS
 62
     3
100
AcDbLine
 10
274.5835872365102
 20
523.8879532511307
 30
0.0
 11
285.5531152365103
 21
523.8879532511307
 31
0.0
  0
LINE
  5
224
330
1F
100
AcDbEntity
  8
LAY-1
  6
CONTINUOUS
 62
     3
100
AcDbLine
 10
291.0381012365102
 20
533.3880142511308
 30
0.0
 11
285.5531152365103
 21
523.8879532511307
 31
0.0
  0
LINE
  5
225
330
1F
100
AcDbEntity
  8
LAY-1
  6
CONTINUOUS
 62
     3
100
AcDbLine
 10
291.0381012365102
 20
533.3880142511308
 30
0.0
 11
285.5531152365102
 21
542.8880142511308
 31
0.0
  0
LINE
  5
226
330
1F
100
AcDbEntity
  8
LAY-1
  6
CONTINUOUS
 62
     3
100
AcDbLine
 10
274.5834652365102
 20
542.8880142511307
 30
0.0
 11
269.0985862365102
 21
533.3879532511307
 31
0.0
  0
LINE
  5
227
330
1F
100
AcDbEntity
  8
LAY-1
  6
CONTINUOUS
 62
     3
100
AcDbLine
 10
269.0986932365101
 20
533.3879532511307
 30
0.0
 11
274.5835872365102
 21
523.8879532511307
 31
0.0
  0
CIRCLE
  5
228
330
1F
100
AcDbEntity
  8
LAY-1
  6
CONTINUOUS
 62
     3
100
AcDbCircle
 10
280.0683432365101
 20
533.3879532511307
 30
0.0
 40
9.0
  0
ARC
  5
229
330
1F
100
AcDbEntity
  8
LAY-1
  6
CONTINUOUS
 62
     3
100
AcDbCircle
 10
280.0683432365103
 20
533.3879532511307
 30
0.0
 40
10.75
100
AcDbArc
 50
242.0945272089269
 51
297.9054727910738
  0
ARC
  5
22A
330
1F
100
AcDbEntity
  8
LAY-1
  6
CONTINUOUS
 62
     3
100
AcDbCircle
 10
280.0683432365103
 20
533.3879532511307
 30
0.0
 40
10.75
100
AcDbArc
 50
302.0940295353584
 51
357.9048557042461
  0
ARC
  5
22B
330
1F
100
AcDbEntity
  8
LAY-1
  6
CONTINUOUS
 62
     3
100
AcDbCircle
 10
280.0683432365103
 20
533.3879532511307
 30
0.0
 40
10.75
100
AcDbArc
 50
2.09582462473435
 51
57.90560874879695
  0
ARC
  5
22C
330
1F
100
AcDbEntity
  8
LAY-1
  6
CONTINUOUS
 62
     3
100
AcDbCircle
 10
280.0683432365103
 20
533.3879532511307
 30
0.0
 40
10.75
100
AcDbArc
 50
62.09452720892694
 51
117.9054727910737
  0
ARC
  5
22D
330
1F
100
AcDbEntity
  8
LAY-1
  6
CONTINUOUS
 62
     3
100
AcDbCircle
 10
280.0683432365103
 20
533.3879532511307
 30
0.0
 40
10.75
100
AcDbArc
 50
122.0953786707207
 51
177.9044745536329
  0
ARC
  5
22E
330
1F
100
AcDbEntity
  8
LAY-1
  6
CONTINUOUS
 62
     3
100
AcDbCircle
 10
280.0683432365103
 20
533.3879532511307
 30
0.0
 40
10.75
100
AcDbArc
 50
182.0944496664564
 51
237.9061514190196
  0
LINE
  5
22F
330
1F
100
AcDbEntity
  8
LAY-1
  6
CONTINUOUS
 62
     3
100
AcDbLine
 10
339.6727252511302
 20
488.7683432365107
 30
0.0
 11
328.7030752511302
 21
488.7683432365107
 31
0.0
  0
LINE
  5
230
330
1F
100
AcDbEntity
  8
LAY-1
  6
CONTINUOUS
 62
     3
100
AcDbLine
 10
328.7031972511302
 20
469.7683432365107
 30
0.0
 11
339.6727252511303
 21
469.7683432365107
 31
0.0
  0
LINE
  5
231
330
1F
100
AcDbEntity
  8
LAY-1
  6
CONTINUOUS
 62
     3
100
AcDbLine
 10
345.1577112511303
 20
479.2684042365108
 30
0.0
 11
339.6727252511303
 21
469.7683432365107
 31
0.0
  0
LINE
  5
232
330
1F
100
AcDbEntity
  8
LAY-1
  6
CONTINUOUS
 62
     3
100
AcDbLine
 10
345.1577112511303
 20
479.2684042365108
 30
0.0
 11
339.6727252511302
 21
488.7684042365108
 31
0.0
  0
LINE
  5
233
330
1F
100
AcDbEntity
  8
LAY-1
  6
CONTINUOUS
 62
     3
100
AcDbLine
 10
328.7030752511302
 20
488.7684042365107
 30
0.0
 11
323.2181962511302
 21
479.2683432365107
 31
0.0
  0
LINE
  5
234
330
1F
100
AcDbEntity
  8
LAY-1
  6
CONTINUOUS
 62
     3
100
AcDbLine
 10
323.2183032511302
 20
479.2683432365107
 30
0.0
 11
328.7031972511302
 21
469.7683432365107
 31
0.0
  0
CIRCLE
  5
235
330
1F
100
AcDbEntity
  8
LAY-1
  6
CONTINUOUS
 62
     3
100
AcDbCircle
 10
334.1879532511302
 20
479.2683432365107
 30
0.0
 40
9.0
  0
ARC
  5
236
330
1F
100
AcDbEntity
  8
LAY-1
  6
CONTINUOUS
 62
     3
100
AcDbCircle
 10
334.1879532511303
 20
479.2683432365107
 30
0.0
 40
10.75
100
AcDbArc
 50
242.0945272089269
 51
297.9054727910738
  0
ARC
  5
237
330
1F
100
AcDbEntity
  8
LAY-1
  6
CONTINUOUS
 62
     3
100
AcDbCircle
 10
334.1879532511303
 20
479.2683432365107
 30
0.0
 40
10.75
100
AcDbArc
 50
302.0940295353584
 51
357.9048557042461
  0
ARC
  5
238
330
1F
100
AcDbEntity
  8
LAY-1
  6
CONTINUOUS
 62
     3
100
AcDbCircle
 10
334.1879532511303
 20
479.2683432365107
 30
0.0
 40
10.75
100
AcDbArc
 50
2.09582462473435
 51
57.90560874879695
  0
ARC
  5
239
330
1F
100
AcDbEntity
  8
LAY-1
  6
CONTINUOUS
 62
     3
100
AcDbCircle
 10
334.1879532511303
 20
479.2683432365107
 30
0.0
 40
10.75
100
AcDbArc
 50
62.09452720892694
 51
117.9054727910737
  0
ARC
  5
23A
330
1F
100
AcDbEntity
  8
LAY-1
  6
CONTINUOUS
 62
     3
100
AcDbCircle
 10
334.1879532511303
 20
479.2683432365107
 30
0.0
 40
10.75
100
AcDbArc
 50
122.0953786707207
 51
177.9044745536329
  0
ARC
  5
23B
330
1F
100
AcDbEntity
  8
LAY-1
  6
CONTINUOUS
 62
     3
100
AcDbCircle
 10
334.1879532511303
 20
479.2683432365107
 30
0.0
 40
10.75
100
AcDbArc
 50
182.0944496664564
 51
237.9061514190196
  0
LINE
  5
23C
330
1F
100
AcDbEntity
  8
LAY-1
  6
CONTINUOUS
 62
     3
100
AcDbLine
 10
339.6727252511301
 20
412.2316567634907
 30
0.0
 11
328.7030752511301
 21
412.2316567634907
 31
0.0
  0
LINE
  5
23D
330
1F
100
AcDbEntity
  8
LAY-1
  6
CONTINUOUS
 62
     3
100
AcDbLine
 10
328.7031972511302
 20
393.2316567634907
 30
0.0
 11
339.6727252511303
 21
393.2316567634907
 31
0.0
  0
LINE
  5
23E
330
1F
100
AcDbEntity
  8
LAY-1
  6
CONTINUOUS
 62
     3
100
AcDbLine
 10
345.1577112511302
 20
402.7317177634907
 30
0.0
 11
339.6727252511303
 21
393.2316567634907
 31
0.0
  0
LINE
  5
23F
330
1F
100
AcDbEntity
  8
LAY-1
  6
CONTINUOUS
 62
     3
100
AcDbLine
 10
345.1577112511302
 20
402.7317177634907
 30
0.0
 11
339.6727252511301
 21
412.2317177634907
 31
0.0
  0
LINE
  5
240
330
1F
100
AcDbEntity
  8
LAY-1
  6
CONTINUOUS
 62
     3
100
AcDbLine
 10
328.7030752511301
 20
412.2317177634906
 30
0.0
 11
323.2181962511302
 21
402.7316567634907
 31
0.0
  0
LINE
  5
241
330
1F
100
AcDbEntity
  8
LAY-1
  6
CONTINUOUS
 62
     3
100
AcDbLine
 10
323.2183032511301
 20
402.7316567634907
 30
0.0
 11
328.7031972511302
 21
393.2316567634907
 31
0.0
  0
CIRCLE
  5
242
330
1F
100
AcDbEntity
  8
LAY-1
  6
CONTINUOUS
 62
     3
100
AcDbCircle
 10
334.1879532511301
 20
402.7316567634907
 30
0.0
 40
9.0
  0
ARC
  5
243
330
1F
100
AcDbEntity
  8
LAY-1
  6
CONTINUOUS
 62
     3
100
AcDbCircle
 10
334.1879532511302
 20
402.7316567634907
 30
0.0
 40
10.75
100
AcDbArc
 50
242.0945272089269
 51
297.9054727910738
  0
ARC
  5
244
330
1F
100
AcDbEntity
  8
LAY-1
  6
CONTINUOUS
 62
     3
100
AcDbCircle
 10
334.1879532511302
 20
402.7316567634907
 30
0.0
 40
10.75
100
AcDbArc
 50
302.0940295353584
 51
357.9048557042461
  0
ARC
  5
245
330
1F
100
AcDbEntity
  8
LAY-1
  6
CONTINUOUS
 62
     3
100
AcDbCircle
 10
334.1879532511302
 20
402.7316567634907
 30
0.0
 40
10.75
100
AcDbArc
 50
2.09582462473435
 51
57.90560874879695
  0
ARC
  5
246
330
1F
100
AcDbEntity
  8
LAY-1
  6
CONTINUOUS
 62
     3
100
AcDbCircle
 10
334.1879532511302
 20
402.7316567634907
 30
0.0
 40
10.75
100
AcDbArc
 50
62.09452720892694
 51
117.9054727910737
  0
ARC
  5
247
330
1F
100
AcDbEntity
  8
LAY-1
  6
CONTINUOUS
 62
     3
100
AcDbCircle
 10
334.1879532511302
 20
402.7316567634907
 30
0.0
 40
10.75
100
AcDbArc
 50
122.0953786707207
 51
177.9044745536329
  0
ARC
  5
248
330
1F
100
AcDbEntity
  8
LAY-1
  6
CONTINUOUS
 62
     3
100
AcDbCircle
 10
334.1879532511302
 20
402.7316567634907
 30
0.0
 40
10.75
100
AcDbArc
 50
182.0944496664564
 51
237.9061514190196
  0
LINE
  5
249
330
1F
100
AcDbEntity
  8
LAY-1
  6
CONTINUOUS
 62
     3
100
AcDbLine
 10
285.5531152365101
 20
358.1120467488707
 30
0.0
 11
274.5834652365101
 21
358.1120467488707
 31
0.0
  0
LINE
  5
24A
330
1F
100
AcDbEntity
  8
LAY-1
  6
CONTINUOUS
 62
     3
100
AcDbLine
 10
274.5835872365101
 20
339.1120467488707
 30
0.0
 11
285.5531152365102
 21
339.1120467488707
 31
0.0
  0
LINE
  5
24B
330
1F
100
AcDbEntity
  8
LAY-1
  6
CONTINUOUS
 62
     3
100
AcDbLine
 10
291.0381012365102
 20
348.6121077488708
 30
0.0
 11
285.5531152365102
 21
339.1120467488707
 31
0.0
  0
LINE
  5
24C
330
1F
100
AcDbEntity
  8
LAY-1
  6
CONTINUOUS
 62
     3
100
AcDbLine
 10
291.0381012365102
 20
348.6121077488708
 30
0.0
 11
285.5531152365101
 21
358.1121077488708
 31
0.0
  0
LINE
  5
24D
330
1F
100
AcDbEntity
  8
LAY-1
  6
CONTINUOUS
 62
     3
100
AcDbLine
 10
274.5834652365101
 20
358.1121077488706
 30
0.0
 11
269.0985862365101
 21
348.6120467488707
 31
0.0
  0
LINE
  5
24E
330
1F
100
AcDbEntity
  8
LAY-1
  6
CONTINUOUS
 62
     3
100
AcDbLine
 10
269.0986932365101
 20
348.6120467488707
 30
0.0
 11
274.5835872365101
 21
339.1120467488707
 31
0.0
  0
CIRCLE
  5
24F
330
1F
100
AcDbEntity
  8
LAY-1
  6
CONTINUOUS
 62
     3
100
AcDbCircle
 10
280.0683432365101
 20
348.6120467488707
 30
0.0
 40
9.0
  0
ARC
  5
250
330
1F
100
AcDbEntity
  8
LAY-1
  6
CONTINUOUS
 62
     3
100
AcDbCircle
 10
280.0683432365102
 20
348.6120467488707
 30
0.0
 40
10.75
100
AcDbArc
 50
242.0945272089269
 51
297.9054727910738
  0
ARC
  5
251
330
1F
100
AcDbEntity
  8
LAY-1
  6
CONTINUOUS
 62
     3
100
AcDbCircle
 10
280.0683432365102
 20
348.6120467488707
 30
0.0
 40
10.75
100
AcDbArc
 50
302.0940295353584
 51
357.9048557042461
  0
ARC
  5
252
330
1F
100
AcDbEntity
  8
LAY-1
  6
CONTINUOUS
 62
     3
100
AcDbCircle
 10
280.0683432365102
 20
348.6120467488707
 30
0.0
 40
10.75
100
AcDbArc
 50
2.09582462473435
 51
57.90560874879695
  0
ARC
  5
253
330
1F
100
AcDbEntity
  8
LAY-1
  6
CONTINUOUS
 62
     3
100
AcDbCircle
 10
280.0683432365102
 20
348.6120467488707
 30
0.0
 40
10.75
100
AcDbArc
 50
62.09452720892694
 51
117.9054727910737
  0
ARC
  5
254
330
1F
100
AcDbEntity
  8
LAY-1
  6
CONTINUOUS
 62
     3
100
AcDbCircle
 10
280.0683432365102
 20
348.6120467488707
 30
0.0
 40
10.75
100
AcDbArc
 50
122.0953786707207
 51
177.9044745536329
  0
ARC
  5
255
330
1F
100
AcDbEntity
  8
LAY-1
  6
CONTINUOUS
 62
     3
100
AcDbCircle
 10
280.0683432365102
 20
348.6120467488707
 30
0.0
 40
10.75
100
AcDbArc
 50
182.0944496664564
 51
237.9061514190196
  0
LINE
  5
256
330
1F
100
AcDbEntity
  8
LAY-1
  6
CONTINUOUS
 62
     3
100
AcDbLine
 10
209.0164287634901
 20
358.1120467488707
 30
0.0
 11
198.0467787634901
 21
358.1120467488707
 31
0.0
  0
LINE
  5
257
330
1F
100
AcDbEntity
  8
LAY-1
  6
CONTINUOUS
 62
     3
100
AcDbLine
 10
198.0469007634902
 20
339.1120467488707
 30
0.0
 11
209.0164287634902
 21
339.1120467488707
 31
0.0
  0
LINE
  5
258
330
1F
100
AcDbEntity
  8
LAY-1
  6
CONTINUOUS
 62
     3
100
AcDbLine
 10
214.5014147634902
 20
348.6121077488708
 30
0.0
 11
209.0164287634902
 21
339.1120467488707
 31
0.0
  0
LINE
  5
259
330
1F
100
AcDbEntity
  8
LAY-1
  6
CONTINUOUS
 62
     3
100
AcDbLine
 10
214.5014147634902
 20
348.6121077488708
 30
0.0
 11
209.0164287634901
 21
358.1121077488708
 31
0.0
  0
LINE
  5
25A
330
1F
100
AcDbEntity
  8
LAY-1
  6
CONTINUOUS
 62
     3
100
AcDbLine
 10
198.0467787634901
 20
358.1121077488706
 30
0.0
 11
192.5618997634901
 21
348.6120467488707
 31
0.0
  0
LINE
  5
25B
330
1F
100
AcDbEntity
  8
LAY-1
  6
CONTINUOUS
 62
     3
100
AcDbLine
 10
192.5620067634901
 20
348.6120467488707
 30
0.0
 11
198.0469007634902
 21
339.1120467488707
 31
0.0
  0
CIRCLE
  5
25C
330
1F
100
AcDbEntity
  8
LAY-1
  6
CONTINUOUS
 62
     3
100
AcDbCircle
 10
203.5316567634901
 20
348.6120467488707
 30
0.0
 40
9.0
  0
ARC
  5
25D
330
1F
100
AcDbEntity
  8
LAY-1
  6
CONTINUOUS
 62
     3
100
AcDbCircle
 10
203.5316567634902
 20
348.6120467488707
 30
0.0
 40
10.75
100
AcDbArc
 50
242.0945272089269
 51
297.9054727910738
  0
ARC
  5
25E
330
1F
100
AcDbEntity
  8
LAY-1
  6
CONTINUOUS
 62
     3
100
AcDbCircle
 10
203.5316567634902
 20
348.6120467488707
 30
0.0
 40
10.75
100
AcDbArc
 50
302.0940295353584
 51
357.9048557042461
  0
ARC
  5
25F
330
1F
100
AcDbEntity
  8
LAY-1
  6
CONTINUOUS
 62
     3
100
AcDbCircle
 10
203.5316567634902
 20
348.6120467488707
 30
0.0
 40
10.75
100
AcDbArc
 50
2.09582462473435
 51
57.90560874879695
  0
ARC
  5
260
330
1F
100
AcDbEntity
  8
LAY-1
  6
CONTINUOUS
 62
     3
100
AcDbCircle
 10
203.5316567634902
 20
348.6120467488707
 30
0.0
 40
10.75
100
AcDbArc
 50
62.09452720892694
 51
117.9054727910737
  0
ARC
  5
261
330
1F
100
AcDbEntity
  8
LAY-1
  6
CONTINUOUS
 62
     3
100
AcDbCircle
 10
203.5316567634902
 20
348.6120467488707
 30
0.0
 40
10.75
100
AcDbArc
 50
122.0953786707207
 51
177.9044745536329
  0
ARC
  5
262
330
1F
100
AcDbEntity
  8
LAY-1
  6
CONTINUOUS
 62
     3
100
AcDbCircle
 10
203.5316567634902
 20
348.6120467488707
 30
0.0
 40
10.75
100
AcDbArc
 50
182.0944496664564
 51
237.9061514190196
  0
LINE
  5
263
330
1F
100
AcDbEntity
  8
LAY-1
  6
CONTINUOUS
 62
     3
100
AcDbLine
 10
154.8968187488701
 20
412.2316567634907
 30
0.0
 11
143.9271687488701
 21
412.2316567634907
 31
0.0
  0
LINE
  5
264
330
1F
100
AcDbEntity
  8
LAY-1
  6
CONTINUOUS
 62
     3
100
AcDbLine
 10
143.9272907488702
 20
393.2316567634907
 30
0.0
 11
154.8968187488703
 21
393.2316567634907
 31
0.0
  0
LINE
  5
265
330
1F
100
AcDbEntity
  8
LAY-1
  6
CONTINUOUS
 62
     3
100
AcDbLine
 10
160.3818047488702
 20
402.7317177634907
 30
0.0
 11
154.8968187488703
 21
393.2316567634907
 31
0.0
  0
LINE
  5
266
330
1F
100
AcDbEntity
  8
LAY-1
  6
CONTINUOUS
 62
     3
100
AcDbLine
 10
160.3818047488702
 20
402.7317177634907
 30
0.0
 11
154.8968187488701
 21
412.2317177634907
 31
0.0
  0
LINE
  5
267
330
1F
100
AcDbEntity
  8
LAY-1
  6
CONTINUOUS
 62
     3
100
AcDbLine
 10
143.9271687488701
 20
412.2317177634906
 30
0.0
 11
138.4422897488702
 21
402.7316567634907
 31
0.0
  0
LINE
  5
268
330
1F
100
AcDbEntity
  8
LAY-1
  6
CONTINUOUS
 62
     3
100
AcDbLine
 10
138.4423967488701
 20
402.7316567634907
 30
0.0
 11
143.9272907488702
 21
393.2316567634907
 31
0.0
  0
CIRCLE
  5
269
330
1F
100
AcDbEntity
  8
LAY-1
  6
CONTINUOUS
 62
     3
100
AcDbCircle
 10
149.4120467488701
 20
402.7316567634907
 30
0.0
 40
9.0
  0
ARC
  5
26A
330
1F
100
AcDbEntity
  8
LAY-1
  6
CONTINUOUS
 62
     3
100
AcDbCircle
 10
149.4120467488702
 20
402.7316567634907
 30
0.0
 40
10.75
100
AcDbArc
 50
242.0945272089269
 51
297.9054727910738
  0
ARC
  5
26B
330
1F
100
AcDbEntity
  8
LAY-1
  6
CONTINUOUS
 62
     3
100
AcDbCircle
 10
149.4120467488702
 20
402.7316567634907
 30
0.0
 40
10.75
100
AcDbArc
 50
302.0940295353584
 51
357.9048557042461
  0
ARC
  5
26C
330
1F
100
AcDbEntity
  8
LAY-1
  6
CONTINUOUS
 62
     3
100
AcDbCircle
 10
149.4120467488702
 20
402.7316567634907
 30
0.0
 40
10.75
100
AcDbArc
 50
2.09582462473435
 51
57.90560874879695
  0
ARC
  5
26D
330
1F
100
AcDbEntity
  8
LAY-1
  6
CONTINUOUS
 62
     3
100
AcDbCircle
 10
149.4120467488702
 20
402.7316567634907
 30
0.0
 40
10.75
100
AcDbArc
 50
62.09452720892694
 51
117.9054727910737
  0
ARC
  5
26E
330
1F
100
AcDbEntity
  8
LAY-1
  6
CONTINUOUS
 62
     3
100
AcDbCircle
 10
149.4120467488702
 20
402.7316567634907
 30
0.0
 40
10.75
100
AcDbArc
 50
122.0953786707207
 51
177.9044745536329
  0
ARC
  5
26F
330
1F
100
AcDbEntity
  8
LAY-1
  6
CONTINUOUS
 62
     3
100
AcDbCircle
 10
149.4120467488702
 20
402.7316567634907
 30
0.0
 40
10.75
100
AcDbArc
 50
182.0944496664564
 51
237.9061514190196
  0
LINE
  5
270
330
1F
100
AcDbEntity
  8
LAY-1
  6
CONTINUOUS
 62
     3
100
AcDbLine
 10
154.8968187488701
 20
488.7683432365107
 30
0.0
 11
143.9271687488701
 21
488.7683432365107
 31
0.0
  0
LINE
  5
271
330
1F
100
AcDbEntity
  8
LAY-1
  6
CONTINUOUS
 62
     3
100
AcDbLine
 10
143.9272907488702
 20
469.7683432365107
 30
0.0
 11
154.8968187488703
 21
469.7683432365107
 31
0.0
  0
LINE
  5
272
330
1F
100
AcDbEntity
  8
LAY-1
  6
CONTINUOUS
 62
     3
100
AcDbLine
 10
160.3818047488702
 20
479.2684042365108
 30
0.0
 11
154.8968187488703
 21
469.7683432365107
 31
0.0
  0
LINE
  5
273
330
1F
100
AcDbEntity
  8
LAY-1
  6
CONTINUOUS
 62
     3
100
AcDbLine
 10
160.3818047488702
 20
479.2684042365108
 30
0.0
 11
154.8968187488701
 21
488.7684042365108
 31
0.0
  0
LINE
  5
274
330
1F
100
AcDbEntity
  8
LAY-1
  6
CONTINUOUS
 62
     3
100
AcDbLine
 10
143.9271687488701
 20
488.7684042365107
 30
0.0
 11
138.4422897488702
 21
479.2683432365107
 31
0.0
  0
LINE
  5
275
330
1F
100
AcDbEntity
  8
LAY-1
  6
CONTINUOUS
 62
     3
100
AcDbLine
 10
138.4423967488701
 20
479.2683432365107
 30
0.0
 11
143.9272907488702
 21
469.7683432365107
 31
0.0
  0
CIRCLE
  5
276
330
1F
100
AcDbEntity
  8
LAY-1
  6
CONTINUOUS
 62
     3
100
AcDbCircle
 10
149.4120467488701
 20
479.2683432365107
 30
0.0
 40
9.0
  0
ARC
  5
277
330
1F
100
AcDbEntity
  8
LAY-1
  6
CONTINUOUS
 62
     3
100
AcDbCircle
 10
149.4120467488702
 20
479.2683432365107
 30
0.0
 40
10.75
100
AcDbArc
 50
242.0945272089269
 51
297.9054727910738
  0
ARC
  5
278
330
1F
100
AcDbEntity
  8
LAY-1
  6
CONTINUOUS
 62
     3
100
AcDbCircle
 10
149.4120467488702
 20
479.2683432365107
 30
0.0
 40
10.75
100
AcDbArc
 50
302.0940295353584
 51
357.9048557042461
  0
ARC
  5
279
330
1F
100
AcDbEntity
  8
LAY-1
  6
CONTINUOUS
 62
     3
100
AcDbCircle
 10
149.4120467488702
 20
479.2683432365107
 30
0.0
 40
10.75
100
AcDbArc
 50
2.09582462473435
 51
57.90560874879695
  0
ARC
  5
27A
330
1F
100
AcDbEntity
  8
LAY-1
  6
CONTINUOUS
 62
     3
100
AcDbCircle
 10
149.4120467488702
 20
479.2683432365107
 30
0.0
 40
10.75
100
AcDbArc
 50
62.09452720892694
 51
117.9054727910737
  0
ARC
  5
27B
330
1F
100
AcDbEntity
  8
LAY-1
  6
CONTINUOUS
 62
     3
100
AcDbCircle
 10
149.4120467488702
 20
479.2683432365107
 30
0.0
 40
10.75
100
AcDbArc
 50
122.0953786707207
 51
177.9044745536329
  0
ARC
  5
27C
330
1F
100
AcDbEntity
  8
LAY-1
  6
CONTINUOUS
 62
     3
100
AcDbCircle
 10
149.4120467488702
 20
479.2683432365107
 30
0.0
 40
10.75
100
AcDbArc
 50
182.0944496664564
 51
237.9061514190196
  0
ARC
  5
27D
330
1F
100
AcDbEntity
  8
LAY-1
  6
EXLTYPE2
 62
     1
100
AcDbCircle
 10
241.8
 20
441.0
 30
0.0
 40
100.0
100
AcDbArc
 50
102.2251226757357
 51
122.951015455302
  0
ARC
  5
27E
330
1F
100
AcDbEntity
  8
LAY-1
  6
EXLTYPE2
 62
     1
100
AcDbCircle
 10
241.8585786437627
 20
440.8585786437627
 30
0.0
 40
100.0
100
AcDbArc
 50
147.2251226757357
 51
167.9510154553021
  0
ARC
  5
27F
330
1F
100
AcDbEntity
  8
LAY-1
  6
EXLTYPE2
 62
     1
100
AcDbCircle
 10
242.0
 20
440.8
 30
0.0
 40
100.0
100
AcDbArc
 50
192.2251226757357
 51
212.951015455302
  0
ARC
  5
280
330
1F
100
AcDbEntity
  8
LAY-1
  6
EXLTYPE2
 62
     1
100
AcDbCircle
 10
242.1414213562373
 20
440.8585786437627
 30
0.0
 40
100.0
100
AcDbArc
 50
237.2251226757357
 51
257.951015455302
  0
ARC
  5
281
330
1F
100
AcDbEntity
  8
LAY-1
  6
EXLTYPE2
 62
     1
100
AcDbCircle
 10
242.2
 20
441.0
 30
0.0
 40
100.0
100
AcDbArc
 50
282.2251226757357
 51
302.951015455302
  0
ARC
  5
282
330
1F
100
AcDbEntity
  8
LAY-1
  6
EXLTYPE2
 62
     1
100
AcDbCircle
 10
242.1414213562373
 20
441.1414213562373
 30
0.0
 40
100.0
100
AcDbArc
 50
327.2251226757357
 51
347.951015455302
  0
ARC
  5
283
330
1F
100
AcDbEntity
  8
LAY-1
  6
EXLTYPE2
 62
     1
100
AcDbCircle
 10
242.0
 20
441.2
 30
0.0
 40
100.0
100
AcDbArc
 50
12.2251226757357
 51
32.95101545530198
  0
ARC
  5
284
330
1F
100
AcDbEntity
  8
LAY-1
  6
EXLTYPE2
 62
     1
100
AcDbCircle
 10
241.8585786437627
 20
441.1414213562373
 30
0.0
 40
100.0
100
AcDbArc
 50
57.22512267573574
 51
77.95101545530197
  0
LINE
  5
285
330
1F
100
AcDbEntity
  8
LAY-1
  6
EXLTYPE2
 62
     1
100
AcDbLine
 10
407.0
 20
528.5000000000002
 30
0.0
 11
377.0
 21
528.5000000000002
 31
0.0
  0
LINE
  5
286
330
1F
100
AcDbEntity
  8
LAY-1
  6
EXLTYPE2
 62
     1
100
AcDbLine
 10
407.0000000000001
 20
353.4999999999998
 30
0.0
 11
377.0000000000001
 21
353.4999999999998
 31
0.0
  0
LINE
  5
287
330
1F
100
AcDbEntity
  8
LAY-1
  6
EXLTYPE2
 62
     1
100
AcDbLine
 10
76.99999999999966
 20
353.4999999999999
 30
0.0
 11
106.9999999999997
 21
353.4999999999998
 31
0.0
  0
LINE
  5
288
330
1F
100
AcDbEntity
  8
LAY-1
  6
EXLTYPE2
 62
     1
100
AcDbLine
 10
76.99999999999977
 20
528.5000000000002
 30
0.0
 11
106.9999999999998
 21
528.5000000000002
 31
0.0
  0
LINE
  5
289
330
1F
100
AcDbEntity
  8
LAY-1
  6
EXLTYPE2
 62
     1
100
AcDbLine
 10
242.0000000000001
 20
561.0
 30
0.0
 11
242.0000000000001
 21
320.0
 31
0.0
  0
LINE
  5
28A
330
1F
100
AcDbEntity
  8
LAY-1
  6
EXLTYPE2
 62
     1
100
AcDbLine
 10
73.0
 20
441.0000000000002
 30
0.0
 11
412.0
 21
441.0000000000003
 31
0.0
  0
CIRCLE
  5
28B
330
1F
100
AcDbEntity
  8
LAY-1
  6
CONTINUOUS
 62
     3
100
AcDbCircle
 10
620.0
 20
153.0
 30
0.0
 40
50.0
  0
CIRCLE
  5
28C
330
1F
100
AcDbEntity
  8
LAY-1
  6
EXLTYPE2
 62
     1
100
AcDbCircle
 10
620.0
 20
153.0
 30
0.0
 40
87.5
  0
CIRCLE
  5
28D
330
1F
100
AcDbEntity
  8
LAY-1
  6
CONTINUOUS
 62
     3
100
AcDbCircle
 10
620.0
 20
153.0
 30
0.0
 40
75.5
  0
CIRCLE
  5
28E
330
1F
100
AcDbEntity
  8
LAY-1
  6
CONTINUOUS
 62
     3
100
AcDbCircle
 10
620.0
 20
153.0
 30
0.0
 40
105.0
  0
LINE
  5
28F
330
1F
100
AcDbEntity
  8
LAY-1
  6
EXLTYPE2
 62
     1
100
AcDbLine
 10
689.7529047046005
 20
181.8925991435683
 30
0.0
 11
713.1083873865304
 21
191.5667568261942
 31
0.0
  0
CIRCLE
  5
290
330
1F
100
AcDbEntity
  8
LAY-1
  6
CONTINUOUS
 62
     3
100
AcDbCircle
 10
700.83945909474
 20
186.48480033195
 30
0.0
 40
9.5
  0
LINE
  5
291
330
1F
100
AcDbEntity
  8
LAY-1
  6
EXLTYPE2
 62
     1
100
AcDbLine
 10
648.8925991435602
 20
222.7529047046038
 30
0.0
 11
658.5667568261852
 21
246.1083873865341
 31
0.0
  0
CIRCLE
  5
292
330
1F
100
AcDbEntity
  8
LAY-1
  6
CONTINUOUS
 62
     3
100
AcDbCircle
 10
653.4848003319438
 20
233.8394590947426
 30
0.0
 40
9.5
  0
LINE
  5
293
330
1F
100
AcDbEntity
  8
LAY-1
  6
EXLTYPE2
 62
     1
100
AcDbLine
 10
591.1074008564317
 20
222.7529047046005
 30
0.0
 11
581.4332431738057
 21
246.1083873865304
 31
0.0
  0
CIRCLE
  5
294
330
1F
100
AcDbEntity
  8
LAY-1
  6
CONTINUOUS
 62
     3
100
AcDbCircle
 10
586.5151996680501
 20
233.8394590947401
 30
0.0
 40
9.5
  0
LINE
  5
295
330
1F
100
AcDbEntity
  8
LAY-1
  6
EXLTYPE2
 62
     1
100
AcDbLine
 10
550.2470952953961
 20
181.8925991435602
 30
0.0
 11
526.8916126134659
 21
191.5667568261851
 31
0.0
  0
CIRCLE
  5
296
330
1F
100
AcDbEntity
  8
LAY-1
  6
CONTINUOUS
 62
     3
100
AcDbCircle
 10
539.1605409052574
 20
186.4848003319438
 30
0.0
 40
9.5
  0
LINE
  5
297
330
1F
100
AcDbEntity
  8
LAY-1
  6
EXLTYPE2
 62
     1
100
AcDbLine
 10
550.2470952953995
 20
124.1074008564317
 30
0.0
 11
526.8916126134696
 21
114.4332431738058
 31
0.0
  0
CIRCLE
  5
298
330
1F
100
AcDbEntity
  8
LAY-1
  6
CONTINUOUS
 62
     3
100
AcDbCircle
 10
539.16054090526
 20
119.51519966805
 30
0.0
 40
9.5
  0
LINE
  5
299
330
1F
100
AcDbEntity
  8
LAY-1
  6
EXLTYPE2
 62
     1
100
AcDbLine
 10
591.1074008564398
 20
83.24709529539615
 30
0.0
 11
581.4332431738148
 21
59.89161261346587
 31
0.0
  0
CIRCLE
  5
29A
330
1F
100
AcDbEntity
  8
LAY-1
  6
CONTINUOUS
 62
     3
100
AcDbCircle
 10
586.5151996680562
 20
72.16054090525739
 30
0.0
 40
9.5
  0
LINE
  5
29B
330
1F
100
AcDbEntity
  8
LAY-1
  6
EXLTYPE2
 62
     1
100
AcDbLine
 10
648.8925991435683
 20
83.2470952953995
 30
0.0
 11
658.5667568261943
 21
59.89161261346965
 31
0.0
  0
CIRCLE
  5
29C
330
1F
100
AcDbEntity
  8
LAY-1
  6
CONTINUOUS
 62
     3
100
AcDbCircle
 10
653.4848003319499
 20
72.16054090525995
 30
0.0
 40
9.5
  0
LINE
  5
29D
330
1F
100
AcDbEntity
  8
LAY-1
  6
EXLTYPE2
 62
     1
100
AcDbLine
 10
689.7529047046039
 20
124.1074008564397
 30
0.0
 11
713.1083873865341
 21
114.4332431738149
 31
0.0
  0
CIRCLE
  5
29E
330
1F
100
AcDbEntity
  8
LAY-1
  6
CONTINUOUS
 62
     3
100
AcDbCircle
 10
700.8394590947426
 20
119.5151996680562
 30
0.0
 40
9.5
  0
LINE
  5
29F
330
1F
100
AcDbEntity
  8
LAY-1
  6
CONTINUOUS
 62
     3
100
AcDbLine
 10
507.9
 20
255.0
 30
0.0
 11
507.9
 21
235.0
 31
0.0
  0
ARC
  5
2A0
330
1F
100
AcDbEntity
  8
LAY-1
  6
CONTINUOUS
 62
     3
100
AcDbCircle
 10
509.9
 20
255.0
 30
0.0
 40
2.0
100
AcDbArc
 50
90.00000000000001
 51
180.0
  0
LINE
  5
2A1
330
1F
100
AcDbEntity
  8
LAY-1
  6
CONTINUOUS
 62
     3
100
AcDbLine
 10
732.9
 20
255.0
 30
0.0
 11
732.9
 21
235.0
 31
0.0
  0
ARC
  5
2A2
330
1F
100
AcDbEntity
  8
LAY-1
  6
CONTINUOUS
 62
     3
100
AcDbCircle
 10
730.9
 20
255.0
 30
0.0
 40
2.0
100
AcDbArc
 50
0.0
 51
90.00000000000001
  0
LINE
  5
2A3
330
1F
100
AcDbEntity
  8
LAY-1
  6
CONTINUOUS
 62
     3
100
AcDbLine
 10
508.0000000000001
 20
203.0000000000002
 30
0.0
 11
508.0000000000001
 21
221.0000000000001
 31
0.0
  0
LINE
  5
2A4
330
1F
100
AcDbEntity
  8
LAY-1
  6
CONTINUOUS
 62
     3
100
AcDbLine
 10
731.9999999999999
 20
203.0000000000003
 30
0.0
 11
731.9999999999999
 21
221.0000000000001
 31
0.0
  0
ARC
  5
2A5
330
1F
100
AcDbEntity
  8
LAY-1
  6
CONTINUOUS
 62
     3
100
AcDbCircle
 10
512.0000000000001
 20
203.0000000000002
 30
0.0
 40
4.0
100
AcDbArc
 50
180.0
 51
270.0
  0
ARC
  5
2A6
330
1F
100
AcDbEntity
  8
LAY-1
  6
CONTINUOUS
 62
     3
100
AcDbCircle
 10
727.9999999999999
 20
203.0000000000003
 30
0.0
 40
4.0
100
AcDbArc
 50
270.0
 51
0.0
  0
LINE
  5
2A7
330
1F
100
AcDbEntity
  8
LAY-1
  6
CONTINUOUS
 62
     3
100
AcDbLine
 10
521.5123321816101
 20
221.0000000000001
 30
0.0
 11
521.5123321816101
 21
235.0
 31
0.0
  0
LINE
  5
2A8
330
1F
100
AcDbEntity
  8
LAY-1
  6
CONTINUOUS
 62
     1
100
AcDbLine
 10
522.4593531816101
 20
221.0000000000001
 30
0.0
 11
522.4593531816101
 21
235.0
 31
0.0
  0
LINE
  5
2A9
330
1F
100
AcDbEntity
  8
LAY-1
  6
CONTINUOUS
 62
     1
100
AcDbLine
 10
532.5653101816101
 20
221.0000000000001
 30
0.0
 11
532.5653101816101
 21
235.0
 31
0.0
  0
LINE
  5
2AA
330
1F
100
AcDbEntity
  8
LAY-1
  6
CONTINUOUS
 62
     3
100
AcDbLine
 10
533.5123321816101
 20
221.0000000000001
 30
0.0
 11
533.5123321816101
 21
235.0
 31
0.0
  0
LINE
  5
2AB
330
1F
100
AcDbEntity
  8
LAY-1
  6
CONTINUOUS
 62
     3
100
AcDbLine
 10
706.4876078183901
 20
221.0000000000001
 30
0.0
 11
706.4876078183901
 21
235.0
 31
0.0
  0
LINE
  5
2AC
330
1F
100
AcDbEntity
  8
LAY-1
  6
CONTINUOUS
 62
     1
100
AcDbLine
 10
707.4346288183901
 20
221.0000000000001
 30
0.0
 11
707.4346288183901
 21
235.0
 31
0.0
  0
LINE
  5
2AD
330
1F
100
AcDbEntity
  8
LAY-1
  6
CONTINUOUS
 62
     1
100
AcDbLine
 10
717.5405858183901
 20
221.0000000000001
 30
0.0
 11
717.5405858183901
 21
235.0
 31
0.0
  0
LINE
  5
2AE
330
1F
100
AcDbEntity
  8
LAY-1
  6
CONTINUOUS
 62
     3
100
AcDbLine
 10
718.4876078183901
 20
221.0000000000001
 30
0.0
 11
718.4876078183901
 21
235.0
 31
0.0
  0
LINE
  5
2AF
330
1F
100
AcDbEntity
  8
LAY-1
  6
EXLTYPE2
 62
     1
100
AcDbLine
 10
658.4680819230298
 20
274.0
 30
0.0
 11
658.4680819230298
 21
250.6995735567104
 31
0.0
  0
LINE
  5
2B0
330
1F
100
AcDbEntity
  8
LAY-1
  6
EXLTYPE2
 62
     1
100
AcDbLine
 10
581.53191807697
 20
274.0
 30
0.0
 11
581.53191807697
 21
250.6995735567103
 31
0.0
  0
LINE
  5
2B1
330
1F
100
AcDbEntity
  8
LAY-1
  6
CONTINUOUS
 62
     3
100
AcDbLine
 10
554.4179902717216
 20
235.0
 30
0.0
 11
507.9
 21
235.0
 31
0.0
  0
LINE
  5
2B2
330
1F
100
AcDbEntity
  8
LAY-1
  6
CONTINUOUS
 62
     3
100
AcDbLine
 10
539.9937502441217
 20
221.0000000000001
 30
0.0
 11
508.0000000000001
 21
221.0
 31
0.0
  0
LINE
  5
2B3
330
1F
100
AcDbEntity
  8
LAY-1
  6
CONTINUOUS
 62
     3
100
AcDbLine
 10
525.612500827705
 20
199.0000000000003
 30
0.0
 11
512.0000000000001
 21
199.0000000000002
 31
0.0
  0
LINE
  5
2B4
330
1F
100
AcDbEntity
  8
LAY-1
  6
EXLTYPE2
 62
     1
100
AcDbLine
 10
527.51236218161
 20
274.0
 30
0.0
 11
527.51236218161
 21
202.7095247490289
 31
0.0
  0
LINE
  5
2B5
330
1F
100
AcDbEntity
  8
LAY-1
  6
CONTINUOUS
 62
     3
100
AcDbLine
 10
732.9
 20
235.0
 30
0.0
 11
685.5820097282784
 21
235.0
 31
0.0
  0
LINE
  5
2B6
330
1F
100
AcDbEntity
  8
LAY-1
  6
CONTINUOUS
 62
     3
100
AcDbLine
 10
732.0
 20
221.0000000000002
 30
0.0
 11
700.0062497558783
 21
221.0000000000002
 31
0.0
  0
LINE
  5
2B7
330
1F
100
AcDbEntity
  8
LAY-1
  6
EXLTYPE2
 62
     1
100
AcDbLine
 10
712.4876378183898
 20
274.0
 30
0.0
 11
712.4876378183898
 21
202.7095247490293
 31
0.0
  0
LINE
  5
2B8
330
1F
100
AcDbEntity
  8
LAY-1
  6
CONTINUOUS
 62
     3
100
AcDbLine
 10
727.9999999999999
 20
199.0000000000003
 30
0.0
 11
714.387499172295
 21
199.0000000000003
 31
0.0
  0
LINE
  5
2B9
330
1F
100
AcDbEntity
  8
LAY-1
  6
CONTINUOUS
 62
     3
100
AcDbLine
 10
634.456832294801
 20
257.0
 30
0.0
 11
730.9
 21
257.0
 31
0.0
  0
LINE
  5
2BA
330
1F
100
AcDbEntity
  8
LAY-1
  6
CONTINUOUS
 62
     3
100
AcDbLine
 10
509.9
 20
257.0
 30
0.0
 11
605.543167705199
 21
257.0
 31
0.0
  0
LINE
  5
2BB
330
1F
100
AcDbEntity
  8
LAY-1
  6
CONTINUOUS
 62
     3
100
AcDbLine
 10
607.5
 20
269.0
 30
0.0
 11
613.5
 21
269.0
 31
0.0
  0
LINE
  5
2BC
330
1F
100
AcDbEntity
  8
LAY-1
  6
CONTINUOUS
 62
     3
100
AcDbLine
 10
613.5
 20
257.7986164030804
 30
0.0
 11
613.5
 21
269.0
 31
0.0
  0
LINE
  5
2BD
330
1F
100
AcDbEntity
  8
LAY-1
  6
CONTINUOUS
 62
     3
100
AcDbLine
 10
607.5
 20
257.2532973099652
 30
0.0
 11
607.5
 21
269.0
 31
0.0
  0
LINE
  5
2BE
330
1F
100
AcDbEntity
  8
LAY-1
  6
CONTINUOUS
 62
     3
100
AcDbLine
 10
632.5
 20
269.0
 30
0.0
 11
626.5
 21
269.0
 31
0.0
  0
LINE
  5
2BF
330
1F
100
AcDbEntity
  8
LAY-1
  6
CONTINUOUS
 62
     3
100
AcDbLine
 10
626.5
 20
257.7986164030804
 30
0.0
 11
626.5
 21
269.0
 31
0.0
  0
LINE
  5
2C0
330
1F
100
AcDbEntity
  8
LAY-1
  6
CONTINUOUS
 62
     3
100
AcDbLine
 10
632.5
 20
257.2532973099652
 30
0.0
 11
632.5
 21
269.0
 31
0.0
  0
LINE
  5
2C1
330
1F
100
AcDbEntity
  8
LAY-1
  6
CONTINUOUS
 62
     3
100
AcDbLine
 10
527.51236218161
 20
260.0
 30
0.0
 11
516.7623621816101
 21
260.0
 31
0.0
  0
LINE
  5
2C2
330
1F
100
AcDbEntity
  8
LAY-1
  6
CONTINUOUS
 62
     3
100
AcDbLine
 10
516.7623621816101
 20
257.0000000000002
 30
0.0
 11
516.7623621816101
 21
260.0
 31
0.0
  0
LINE
  5
2C3
330
1F
100
AcDbEntity
  8
LAY-1
  6
CONTINUOUS
 62
     3
100
AcDbLine
 10
527.51236218161
 20
260.0
 30
0.0
 11
538.26236218161
 21
260.0
 31
0.0
  0
LINE
  5
2C4
330
1F
100
AcDbEntity
  8
LAY-1
  6
CONTINUOUS
 62
     3
100
AcDbLine
 10
538.26236218161
 20
257.0000000000002
 30
0.0
 11
538.26236218161
 21
260.0
 31
0.0
  0
LINE
  5
2C5
330
1F
100
AcDbEntity
  8
LAY-1
  6
CONTINUOUS
 62
     3
100
AcDbLine
 10
526.51236218161
 20
260.0
 30
0.0
 11
528.51236218161
 21
257.0
 31
0.0
  0
LINE
  5
2C6
330
1F
100
AcDbEntity
  8
LAY-1
  6
CONTINUOUS
 62
     3
100
AcDbLine
 10
518.0123621816099
 20
268.0000000000001
 30
0.0
 11
527.51236218161
 21
268.0000000000001
 31
0.0
  0
ARC
  5
2C7
330
1F
100
AcDbEntity
  8
LAY-1
  6
CONTINUOUS
 62
     3
100
AcDbCircle
 10
522.76236218161
 20
257.511654243825
 30
0.0
 40
10.48834575617502
100
AcDbArc
 50
63.07115487917574
 51
116.9288451208243
  0
LINE
  5
2C8
330
1F
100
AcDbEntity
  8
LAY-1
  6
CONTINUOUS
 62
     3
100
AcDbLine
 10
518.0123621816099
 20
268.0000000000001
 30
0.0
 11
518.0123621816099
 21
260.0
 31
0.0
  0
ARC
  5
2C9
330
1F
100
AcDbEntity
  8
LAY-1
  6
CONTINUOUS
 62
     3
100
AcDbCircle
 10
532.26236218161
 20
257.511654243825
 30
0.0
 40
10.48834575617502
100
AcDbArc
 50
63.07115487917574
 51
116.9288451208243
  0
LINE
  5
2CA
330
1F
100
AcDbEntity
  8
LAY-1
  6
CONTINUOUS
 62
     3
100
AcDbLine
 10
537.0123621816102
 20
268.0000000000001
 30
0.0
 11
527.5123621816102
 21
268.0000000000001
 31
0.0
  0
LINE
  5
2CB
330
1F
100
AcDbEntity
  8
LAY-1
  6
CONTINUOUS
 62
     3
100
AcDbLine
 10
537.0123621816102
 20
268.0000000000001
 30
0.0
 11
537.0123621816102
 21
260.0
 31
0.0
  0
LINE
  5
2CC
330
1F
100
AcDbEntity
  8
LAY-1
  6
CONTINUOUS
 62
     3
100
AcDbLine
 10
527.51236218161
 20
266.86274491289
 30
0.0
 11
527.51236218161
 21
260.0
 31
0.0
  0
LINE
  5
2CD
330
1F
100
AcDbEntity
  8
LAY-1
  6
CONTINUOUS
 62
     3
100
AcDbLine
 10
581.53191807697
 20
260.0
 30
0.0
 11
570.78191807697
 21
260.0
 31
0.0
  0
LINE
  5
2CE
330
1F
100
AcDbEntity
  8
LAY-1
  6
CONTINUOUS
 62
     3
100
AcDbLine
 10
570.78191807697
 20
257.0000000000002
 30
0.0
 11
570.78191807697
 21
260.0
 31
0.0
  0
LINE
  5
2CF
330
1F
100
AcDbEntity
  8
LAY-1
  6
CONTINUOUS
 62
     3
100
AcDbLine
 10
581.53191807697
 20
260.0
 30
0.0
 11
592.28191807697
 21
260.0
 31
0.0
  0
LINE
  5
2D0
330
1F
100
AcDbEntity
  8
LAY-1
  6
CONTINUOUS
 62
     3
100
AcDbLine
 10
592.28191807697
 20
257.0000000000002
 30
0.0
 11
592.28191807697
 21
260.0
 31
0.0
  0
LINE
  5
2D1
330
1F
100
AcDbEntity
  8
LAY-1
  6
CONTINUOUS
 62
     3
100
AcDbLine
 10
580.53191807697
 20
260.0
 30
0.0
 11
582.53191807697
 21
257.0
 31
0.0
  0
LINE
  5
2D2
330
1F
100
AcDbEntity
  8
LAY-1
  6
CONTINUOUS
 62
     3
100
AcDbLine
 10
572.03191807697
 20
268.0000000000001
 30
0.0
 11
581.53191807697
 21
268.0000000000001
 31
0.0
  0
ARC
  5
2D3
330
1F
100
AcDbEntity
  8
LAY-1
  6
CONTINUOUS
 62
     3
100
AcDbCircle
 10
576.78191807697
 20
257.511654243825
 30
0.0
 40
10.48834575617502
100
AcDbArc
 50
63.07115487917574
 51
116.9288451208243
  0
LINE
  5
2D4
330
1F
100
AcDbEntity
  8
LAY-1
  6
CONTINUOUS
 62
     3
100
AcDbLine
 10
572.03191807697
 20
268.0000000000001
 30
0.0
 11
572.03191807697
 21
260.0
 31
0.0
  0
ARC
  5
2D5
330
1F
100
AcDbEntity
  8
LAY-1
  6
CONTINUOUS
 62
     3
100
AcDbCircle
 10
586.28191807697
 20
257.511654243825
 30
0.0
 40
10.48834575617502
100
AcDbArc
 50
63.07115487917574
 51
116.9288451208243
  0
LINE
  5
2D6
330
1F
100
AcDbEntity
  8
LAY-1
  6
CONTINUOUS
 62
     3
100
AcDbLine
 10
591.0319180769702
 20
268.0000000000001
 30
0.0
 11
581.5319180769702
 21
268.0000000000001
 31
0.0
  0
LINE
  5
2D7
330
1F
100
AcDbEntity
  8
LAY-1
  6
CONTINUOUS
 62
     3
100
AcDbLine
 10
591.0319180769702
 20
268.0000000000001
 30
0.0
 11
591.0319180769702
 21
260.0
 31
0.0
  0
LINE
  5
2D8
330
1F
100
AcDbEntity
  8
LAY-1
  6
CONTINUOUS
 62
     3
100
AcDbLine
 10
581.53191807697
 20
266.86274491289
 30
0.0
 11
581.53191807697
 21
260.0
 31
0.0
  0
LINE
  5
2D9
330
1F
100
AcDbEntity
  8
LAY-1
  6
CONTINUOUS
 62
     3
100
AcDbLine
 10
658.46808192303
 20
260.0
 30
0.0
 11
647.71808192303
 21
260.0
 31
0.0
  0
LINE
  5
2DA
330
1F
100
AcDbEntity
  8
LAY-1
  6
CONTINUOUS
 62
     3
100
AcDbLine
 10
647.71808192303
 20
257.0000000000002
 30
0.0
 11
647.71808192303
 21
260.0
 31
0.0
  0
LINE
  5
2DB
330
1F
100
AcDbEntity
  8
LAY-1
  6
CONTINUOUS
 62
     3
100
AcDbLine
 10
658.46808192303
 20
260.0
 30
0.0
 11
669.21808192303
 21
260.0
 31
0.0
  0
LINE
  5
2DC
330
1F
100
AcDbEntity
  8
LAY-1
  6
CONTINUOUS
 62
     3
100
AcDbLine
 10
669.21808192303
 20
257.0000000000002
 30
0.0
 11
669.21808192303
 21
260.0
 31
0.0
  0
LINE
  5
2DD
330
1F
100
AcDbEntity
  8
LAY-1
  6
CONTINUOUS
 62
     3
100
AcDbLine
 10
657.46808192303
 20
260.0
 30
0.0
 11
659.46808192303
 21
257.0
 31
0.0
  0
LINE
  5
2DE
330
1F
100
AcDbEntity
  8
LAY-1
  6
CONTINUOUS
 62
     3
100
AcDbLine
 10
648.96808192303
 20
268.0000000000001
 30
0.0
 11
658.46808192303
 21
268.0000000000001
 31
0.0
  0
ARC
  5
2DF
330
1F
100
AcDbEntity
  8
LAY-1
  6
CONTINUOUS
 62
     3
100
AcDbCircle
 10
653.71808192303
 20
257.511654243825
 30
0.0
 40
10.48834575617502
100
AcDbArc
 50
63.07115487917574
 51
116.9288451208243
  0
LINE
  5
2E0
330
1F
100
AcDbEntity
  8
LAY-1
  6
CONTINUOUS
 62
     3
100
AcDbLine
 10
648.96808192303
 20
268.0000000000001
 30
0.0
 11
648.96808192303
 21
260.0
 31
0.0
  0
ARC
  5
2E1
330
1F
100
AcDbEntity
  8
LAY-1
  6
CONTINUOUS
 62
     3
100
AcDbCircle
 10
663.21808192303
 20
257.511654243825
 30
0.0
 40
10.48834575617502
100
AcDbArc
 50
63.07115487917574
 51
116.9288451208243
  0
LINE
  5
2E2
330
1F
100
AcDbEntity
  8
LAY-1
  6
CONTINUOUS
 62
     3
100
AcDbLine
 10
667.9680819230302
 20
268.0000000000001
 30
0.0
 11
658.4680819230302
 21
268.0000000000001
 31
0.0
  0
LINE
  5
2E3
330
1F
100
AcDbEntity
  8
LAY-1
  6
CONTINUOUS
 62
     3
100
AcDbLine
 10
667.9680819230302
 20
268.0000000000001
 30
0.0
 11
667.9680819230302
 21
260.0
 31
0.0
  0
LINE
  5
2E4
330
1F
100
AcDbEntity
  8
LAY-1
  6
CONTINUOUS
 62
     3
100
AcDbLine
 10
658.46808192303
 20
266.86274491289
 30
0.0
 11
658.46808192303
 21
260.0
 31
0.0
  0
LINE
  5
2E5
330
1F
100
AcDbEntity
  8
LAY-1
  6
CONTINUOUS
 62
     3
100
AcDbLine
 10
712.48763781839
 20
260.0
 30
0.0
 11
701.7376378183901
 21
260.0
 31
0.0
  0
LINE
  5
2E6
330
1F
100
AcDbEntity
  8
LAY-1
  6
CONTINUOUS
 62
     3
100
AcDbLine
 10
701.7376378183901
 20
257.0000000000002
 30
0.0
 11
701.7376378183901
 21
260.0
 31
0.0
  0
LINE
  5
2E7
330
1F
100
AcDbEntity
  8
LAY-1
  6
CONTINUOUS
 62
     3
100
AcDbLine
 10
712.48763781839
 20
260.0
 30
0.0
 11
723.23763781839
 21
260.0
 31
0.0
  0
LINE
  5
2E8
330
1F
100
AcDbEntity
  8
LAY-1
  6
CONTINUOUS
 62
     3
100
AcDbLine
 10
723.23763781839
 20
257.0000000000002
 30
0.0
 11
723.23763781839
 21
260.0
 31
0.0
  0
LINE
  5
2E9
330
1F
100
AcDbEntity
  8
LAY-1
  6
CONTINUOUS
 62
     3
100
AcDbLine
 10
711.48763781839
 20
260.0
 30
0.0
 11
713.48763781839
 21
257.0
 31
0.0
  0
LINE
  5
2EA
330
1F
100
AcDbEntity
  8
LAY-1
  6
CONTINUOUS
 62
     3
100
AcDbLine
 10
702.9876378183899
 20
268.0000000000001
 30
0.0
 11
712.48763781839
 21
268.0000000000001
 31
0.0
  0
ARC
  5
2EB
330
1F
100
AcDbEntity
  8
LAY-1
  6
CONTINUOUS
 62
     3
100
AcDbCircle
 10
707.73763781839
 20
257.511654243825
 30
0.0
 40
10.48834575617502
100
AcDbArc
 50
63.07115487917574
 51
116.9288451208243
  0
LINE
  5
2EC
330
1F
100
AcDbEntity
  8
LAY-1
  6
CONTINUOUS
 62
     3
100
AcDbLine
 10
702.9876378183899
 20
268.0000000000001
 30
0.0
 11
702.9876378183899
 21
260.0
 31
0.0
  0
ARC
  5
2ED
330
1F
100
AcDbEntity
  8
LAY-1
  6
CONTINUOUS
 62
     3
100
AcDbCircle
 10
717.23763781839
 20
257.511654243825
 30
0.0
 40
10.48834575617502
100
AcDbArc
 50
63.07115487917574
 51
116.9288451208243
  0
LINE
  5
2EE
330
1F
100
AcDbEntity
  8
LAY-1
  6
CONTINUOUS
 62
     3
100
AcDbLine
 10
721.9876378183902
 20
268.0000000000001
 30
0.0
 11
712.4876378183902
 21
268.0000000000001
 31
0.0
  0
LINE
  5
2EF
330
1F
100
AcDbEntity
  8
LAY-1
  6
CONTINUOUS
 62
     3
100
AcDbLine
 10
721.9876378183902
 20
268.0000000000001
 30
0.0
 11
721.9876378183902
 21
260.0
 31
0.0
  0
LINE
  5
2F0
330
1F
100
AcDbEntity
  8
LAY-1
  6
CONTINUOUS
 62
     3
100
AcDbLine
 10
712.48763781839
 20
266.86274491289
 30
0.0
 11
712.48763781839
 21
260.0
 31
0.0
  0
LINE
  5
2F1
330
1F
100
AcDbEntity
  8
LAY-1
  6
CONTINUOUS
 62
     3
100
AcDbLine
 10
507.9000000000001
 20
51.0
 30
0.0
 11
507.9000000000001
 21
71.0
 31
0.0
  0
ARC
  5
2F2
330
1F
100
AcDbEntity
  8
LAY-1
  6
CONTINUOUS
 62
     3
100
AcDbCircle
 10
509.9000000000001
 20
51.0
 30
0.0
 40
2.0
100
AcDbArc
 50
180.0
 51
270.0
  0
LINE
  5
2F3
330
1F
100
AcDbEntity
  8
LAY-1
  6
CONTINUOUS
 62
     3
100
AcDbLine
 10
732.9000000000001
 20
51.00000000000014
 30
0.0
 11
732.9000000000001
 21
71.00000000000014
 31
0.0
  0
ARC
  5
2F4
330
1F
100
AcDbEntity
  8
LAY-1
  6
CONTINUOUS
 62
     3
100
AcDbCircle
 10
730.9000000000001
 20
51.00000000000014
 30
0.0
 40
2.0
100
AcDbArc
 50
270.0
 51
0.0
  0
LINE
  5
2F5
330
1F
100
AcDbEntity
  8
LAY-1
  6
CONTINUOUS
 62
     3
100
AcDbLine
 10
508.0000000000001
 20
102.9999999999998
 30
0.0
 11
508.0000000000002
 21
84.9999999999999
 31
0.0
  0
LINE
  5
2F6
330
1F
100
AcDbEntity
  8
LAY-1
  6
CONTINUOUS
 62
     3
100
AcDbLine
 10
731.9999999999999
 20
102.9999999999998
 30
0.0
 11
731.9999999999999
 21
85.00000000000003
 31
0.0
  0
ARC
  5
2F7
330
1F
100
AcDbEntity
  8
LAY-1
  6
CONTINUOUS
 62
     3
100
AcDbCircle
 10
512.0000000000001
 20
102.9999999999998
 30
0.0
 40
4.0
100
AcDbArc
 50
90.00000000000001
 51
180.0000000000002
  0
ARC
  5
2F8
330
1F
100
AcDbEntity
  8
LAY-1
  6
CONTINUOUS
 62
     3
100
AcDbCircle
 10
727.9999999999999
 20
102.9999999999998
 30
0.0
 40
4.0
100
AcDbArc
 50
0.0
 51
90.00000000000001
  0
LINE
  5
2F9
330
1F
100
AcDbEntity
  8
LAY-1
  6
CONTINUOUS
 62
     3
100
AcDbLine
 10
521.5123321816102
 20
84.99999999999997
 30
0.0
 11
521.5123321816102
 21
71.00000000000003
 31
0.0
  0
LINE
  5
2FA
330
1F
100
AcDbEntity
  8
LAY-1
  6
CONTINUOUS
 62
     1
100
AcDbLine
 10
522.4593531816101
 20
84.99999999999997
 30
0.0
 11
522.4593531816101
 21
71.00000000000003
 31
0.0
  0
LINE
  5
2FB
330
1F
100
AcDbEntity
  8
LAY-1
  6
CONTINUOUS
 62
     1
100
AcDbLine
 10
532.5653101816101
 20
84.99999999999994
 30
0.0
 11
532.5653101816101
 21
71.00000000000003
 31
0.0
  0
LINE
  5
2FC
330
1F
100
AcDbEntity
  8
LAY-1
  6
CONTINUOUS
 62
     3
100
AcDbLine
 10
533.5123321816102
 20
84.99999999999994
 30
0.0
 11
533.5123321816102
 21
71.00000000000003
 31
0.0
  0
LINE
  5
2FD
330
1F
100
AcDbEntity
  8
LAY-1
  6
CONTINUOUS
 62
     3
100
AcDbLine
 10
706.4876078183901
 20
85.00000000000007
 30
0.0
 11
706.4876078183902
 21
71.00000000000011
 31
0.0
  0
LINE
  5
2FE
330
1F
100
AcDbEntity
  8
LAY-1
  6
CONTINUOUS
 62
     1
100
AcDbLine
 10
707.4346288183901
 20
85.00000000000007
 30
0.0
 11
707.4346288183901
 21
71.00000000000011
 31
0.0
  0
LINE
  5
2FF
330
1F
100
AcDbEntity
  8
LAY-1
  6
CONTINUOUS
 62
     1
100
AcDbLine
 10
717.5405858183901
 20
85.00000000000006
 30
0.0
 11
717.5405858183901
 21
71.00000000000014
 31
0.0
  0
LINE
  5
300
330
1F
100
AcDbEntity
  8
LAY-1
  6
CONTINUOUS
 62
     3
100
AcDbLine
 10
718.4876078183901
 20
85.00000000000006
 30
0.0
 11
718.4876078183902
 21
71.00000000000014
 31
0.0
  0
LINE
  5
301
330
1F
100
AcDbEntity
  8
LAY-1
  6
EXLTYPE2
 62
     1
100
AcDbLine
 10
658.4680819230298
 20
32.00000000000011
 30
0.0
 11
658.4680819230298
 21
55.30042644328967
 31
0.0
  0
LINE
  5
302
330
1F
100
AcDbEntity
  8
LAY-1
  6
EXLTYPE2
 62
     1
100
AcDbLine
 10
581.5319180769701
 20
32.00000000000006
 30
0.0
 11
581.53191807697
 21
55.30042644328972
 31
0.0
  0
LINE
  5
303
330
1F
100
AcDbEntity
  8
LAY-1
  6
CONTINUOUS
 62
     3
100
AcDbLine
 10
554.4179902717216
 20
71.00000000000006
 30
0.0
 11
507.9000000000001
 21
71.0
 31
0.0
  0
LINE
  5
304
330
1F
100
AcDbEntity
  8
LAY-1
  6
CONTINUOUS
 62
     3
100
AcDbLine
 10
539.9937502441217
 20
84.99999999999999
 30
0.0
 11
508.0000000000002
 21
85.00000000000001
 31
0.0
  0
LINE
  5
305
330
1F
100
AcDbEntity
  8
LAY-1
  6
CONTINUOUS
 62
     3
100
AcDbLine
 10
525.612500827705
 20
106.9999999999998
 30
0.0
 11
512.0000000000001
 21
106.9999999999998
 31
0.0
  0
LINE
  5
306
330
1F
100
AcDbEntity
  8
LAY-1
  6
EXLTYPE2
 62
     1
100
AcDbLine
 10
527.5123621816101
 20
32.00000000000003
 30
0.0
 11
527.51236218161
 21
103.2904752509711
 31
0.0
  0
LINE
  5
307
330
1F
100
AcDbEntity
  8
LAY-1
  6
CONTINUOUS
 62
     3
100
AcDbLine
 10
732.9000000000001
 20
71.00000000000014
 30
0.0
 11
685.5820097282785
 21
71.00000000000014
 31
0.0
  0
LINE
  5
308
330
1F
100
AcDbEntity
  8
LAY-1
  6
CONTINUOUS
 62
     3
100
AcDbLine
 10
732.0
 20
84.99999999999991
 30
0.0
 11
700.0062497558783
 21
84.99999999999996
 31
0.0
  0
LINE
  5
309
330
1F
100
AcDbEntity
  8
LAY-1
  6
EXLTYPE2
 62
     1
100
AcDbLine
 10
712.4876378183899
 20
32.00000000000011
 30
0.0
 11
712.4876378183898
 21
103.2904752509709
 31
0.0
  0
LINE
  5
30A
330
1F
100
AcDbEntity
  8
LAY-1
  6
CONTINUOUS
 62
     3
100
AcDbLine
 10
727.9999999999999
 20
106.9999999999998
 30
0.0
 11
714.387499172295
 21
106.9999999999998
 31
0.0
  0
LINE
  5
30B
330
1F
100
AcDbEntity
  8
LAY-1
  6
CONTINUOUS
 62
     3
100
AcDbLine
 10
634.456832294801
 20
49.00000000000009
 30
0.0
 11
730.9000000000001
 21
49.00000000000014
 31
0.0
  0
LINE
  5
30C
330
1F
100
AcDbEntity
  8
LAY-1
  6
CONTINUOUS
 62
     3
100
AcDbLine
 10
509.9
 20
49.0
 30
0.0
 11
605.543167705199
 21
49.00000000000006
 31
0.0
  0
LINE
  5
30D
330
1F
100
AcDbEntity
  8
LAY-1
  6
CONTINUOUS
 62
     3
100
AcDbLine
 10
607.5
 20
37.00000000000006
 30
0.0
 11
613.5
 21
37.00000000000006
 31
0.0
  0
LINE
  5
30E
330
1F
100
AcDbEntity
  8
LAY-1
  6
CONTINUOUS
 62
     3
100
AcDbLine
 10
613.5
 20
48.20138359691964
 30
0.0
 11
613.5
 21
37.00000000000006
 31
0.0
  0
LINE
  5
30F
330
1F
100
AcDbEntity
  8
LAY-1
  6
CONTINUOUS
 62
     3
100
AcDbLine
 10
607.5
 20
48.74670269003485
 30
0.0
 11
607.5
 21
37.00000000000006
 31
0.0
  0
LINE
  5
310
330
1F
100
AcDbEntity
  8
LAY-1
  6
CONTINUOUS
 62
     3
100
AcDbLine
 10
632.5
 20
37.00000000000009
 30
0.0
 11
626.5
 21
37.00000000000009
 31
0.0
  0
LINE
  5
311
330
1F
100
AcDbEntity
  8
LAY-1
  6
CONTINUOUS
 62
     3
100
AcDbLine
 10
626.5
 20
48.20138359691967
 30
0.0
 11
626.5
 21
37.00000000000009
 31
0.0
  0
LINE
  5
312
330
1F
100
AcDbEntity
  8
LAY-1
  6
CONTINUOUS
 62
     3
100
AcDbLine
 10
632.5
 20
48.74670269003488
 30
0.0
 11
632.5
 21
37.00000000000009
 31
0.0
  0
LINE
  5
313
330
1F
100
AcDbEntity
  8
LAY-1
  6
CONTINUOUS
 62
     3
100
AcDbLine
 10
527.5123621816101
 20
46.00000000000003
 30
0.0
 11
516.7623621816101
 21
46.00000000000003
 31
0.0
  0
LINE
  5
314
330
1F
100
AcDbEntity
  8
LAY-1
  6
CONTINUOUS
 62
     3
100
AcDbLine
 10
516.7623621816101
 20
48.9999999999998
 30
0.0
 11
516.7623621816101
 21
46.00000000000003
 31
0.0
  0
LINE
  5
315
330
1F
100
AcDbEntity
  8
LAY-1
  6
CONTINUOUS
 62
     3
100
AcDbLine
 10
527.5123621816101
 20
46.00000000000003
 30
0.0
 11
538.2623621816101
 21
46.00000000000003
 31
0.0
  0
LINE
  5
316
330
1F
100
AcDbEntity
  8
LAY-1
  6
CONTINUOUS
 62
     3
100
AcDbLine
 10
538.2623621816101
 20
48.9999999999998
 30
0.0
 11
538.2623621816101
 21
46.00000000000003
 31
0.0
  0
LINE
  5
317
330
1F
100
AcDbEntity
  8
LAY-1
  6
CONTINUOUS
 62
     3
100
AcDbLine
 10
518.01236218161
 20
37.99999999999991
 30
0.0
 11
527.5123621816101
 21
37.99999999999991
 31
0.0
  0
ARC
  5
318
330
1F
100
AcDbEntity
  8
LAY-1
  6
CONTINUOUS
 62
     3
100
AcDbCircle
 10
522.7623621816101
 20
48.48834575617505
 30
0.0
 40
10.48834575617502
100
AcDbArc
 50
243.0711548791757
 51
296.9288451208243
  0
LINE
  5
319
330
1F
100
AcDbEntity
  8
LAY-1
  6
CONTINUOUS
 62
     3
100
AcDbLine
 10
518.01236218161
 20
37.99999999999991
 30
0.0
 11
518.01236218161
 21
46.00000000000003
 31
0.0
  0
ARC
  5
31A
330
1F
100
AcDbEntity
  8
LAY-1
  6
CONTINUOUS
 62
     3
100
AcDbCircle
 10
532.2623621816101
 20
48.48834575617505
 30
0.0
 40
10.48834575617502
100
AcDbArc
 50
243.0711548791757
 51
296.9288451208246
  0
LINE
  5
31B
330
1F
100
AcDbEntity
  8
LAY-1
  6
CONTINUOUS
 62
     3
100
AcDbLine
 10
537.0123621816103
 20
37.99999999999991
 30
0.0
 11
527.5123621816103
 21
37.99999999999991
 31
0.0
  0
LINE
  5
31C
330
1F
100
AcDbEntity
  8
LAY-1
  6
CONTINUOUS
 62
     3
100
AcDbLine
 10
537.0123621816103
 20
37.99999999999991
 30
0.0
 11
537.0123621816103
 21
46.00000000000003
 31
0.0
  0
LINE
  5
31D
330
1F
100
AcDbEntity
  8
LAY-1
  6
CONTINUOUS
 62
     3
100
AcDbLine
 10
527.5123621816101
 20
39.13725508711005
 30
0.0
 11
527.5123621816101
 21
46.00000000000003
 31
0.0
  0
LINE
  5
31E
330
1F
100
AcDbEntity
  8
LAY-1
  6
CONTINUOUS
 62
     3
100
AcDbLine
 10
581.53191807697
 20
46.00000000000006
 30
0.0
 11
570.78191807697
 21
46.00000000000006
 31
0.0
  0
LINE
  5
31F
330
1F
100
AcDbEntity
  8
LAY-1
  6
CONTINUOUS
 62
     3
100
AcDbLine
 10
570.78191807697
 20
48.99999999999983
 30
0.0
 11
570.78191807697
 21
46.00000000000006
 31
0.0
  0
LINE
  5
320
330
1F
100
AcDbEntity
  8
LAY-1
  6
CONTINUOUS
 62
     3
100
AcDbLine
 10
581.53191807697
 20
46.00000000000006
 30
0.0
 11
592.28191807697
 21
46.00000000000006
 31
0.0
  0
LINE
  5
321
330
1F
100
AcDbEntity
  8
LAY-1
  6
CONTINUOUS
 62
     3
100
AcDbLine
 10
592.28191807697
 20
48.99999999999983
 30
0.0
 11
592.28191807697
 21
46.00000000000006
 31
0.0
  0
LINE
  5
322
330
1F
100
AcDbEntity
  8
LAY-1
  6
CONTINUOUS
 62
     3
100
AcDbLine
 10
572.0319180769701
 20
37.99999999999994
 30
0.0
 11
581.5319180769701
 21
37.99999999999994
 31
0.0
  0
ARC
  5
323
330
1F
100
AcDbEntity
  8
LAY-1
  6
CONTINUOUS
 62
     3
100
AcDbCircle
 10
576.78191807697
 20
48.48834575617508
 30
0.0
 40
10.48834575617502
100
AcDbArc
 50
243.0711548791763
 51
296.9288451208249
  0
LINE
  5
324
330
1F
100
AcDbEntity
  8
LAY-1
  6
CONTINUOUS
 62
     3
100
AcDbLine
 10
572.0319180769701
 20
37.99999999999994
 30
0.0
 11
572.03191807697
 21
46.00000000000006
 31
0.0
  0
ARC
  5
325
330
1F
100
AcDbEntity
  8
LAY-1
  6
CONTINUOUS
 62
     3
100
AcDbCircle
 10
586.28191807697
 20
48.48834575617508
 30
0.0
 40
10.48834575617502
100
AcDbArc
 50
243.0711548791763
 51
296.9288451208249
  0
LINE
  5
326
330
1F
100
AcDbEntity
  8
LAY-1
  6
CONTINUOUS
 62
     3
100
AcDbLine
 10
591.0319180769703
 20
37.99999999999994
 30
0.0
 11
581.5319180769703
 21
37.99999999999994
 31
0.0
  0
LINE
  5
327
330
1F
100
AcDbEntity
  8
LAY-1
  6
CONTINUOUS
 62
     3
100
AcDbLine
 10
591.0319180769703
 20
37.99999999999994
 30
0.0
 11
591.0319180769702
 21
46.00000000000006
 31
0.0
  0
LINE
  5
328
330
1F
100
AcDbEntity
  8
LAY-1
  6
CONTINUOUS
 62
     3
100
AcDbLine
 10
581.5319180769701
 20
39.13725508711008
 30
0.0
 11
581.53191807697
 21
46.00000000000006
 31
0.0
  0
LINE
  5
329
330
1F
100
AcDbEntity
  8
LAY-1
  6
CONTINUOUS
 62
     3
100
AcDbLine
 10
658.46808192303
 20
46.00000000000011
 30
0.0
 11
647.71808192303
 21
46.00000000000011
 31
0.0
  0
LINE
  5
32A
330
1F
100
AcDbEntity
  8
LAY-1
  6
CONTINUOUS
 62
     3
100
AcDbLine
 10
647.71808192303
 20
48.99999999999989
 30
0.0
 11
647.71808192303
 21
46.00000000000011
 31
0.0
  0
LINE
  5
32B
330
1F
100
AcDbEntity
  8
LAY-1
  6
CONTINUOUS
 62
     3
100
AcDbLine
 10
658.46808192303
 20
46.00000000000011
 30
0.0
 11
669.21808192303
 21
46.00000000000011
 31
0.0
  0
LINE
  5
32C
330
1F
100
AcDbEntity
  8
LAY-1
  6
CONTINUOUS
 62
     3
100
AcDbLine
 10
669.21808192303
 20
48.99999999999989
 30
0.0
 11
669.21808192303
 21
46.00000000000011
 31
0.0
  0
LINE
  5
32D
330
1F
100
AcDbEntity
  8
LAY-1
  6
CONTINUOUS
 62
     3
100
AcDbLine
 10
648.96808192303
 20
38.0
 30
0.0
 11
658.46808192303
 21
38.0
 31
0.0
  0
ARC
  5
32E
330
1F
100
AcDbEntity
  8
LAY-1
  6
CONTINUOUS
 62
     3
100
AcDbCircle
 10
653.71808192303
 20
48.48834575617514
 30
0.0
 40
10.48834575617502
100
AcDbArc
 50
243.0711548791757
 51
296.9288451208243
  0
LINE
  5
32F
330
1F
100
AcDbEntity
  8
LAY-1
  6
CONTINUOUS
 62
     3
100
AcDbLine
 10
648.96808192303
 20
38.0
 30
0.0
 11
648.96808192303
 21
46.00000000000011
 31
0.0
  0
ARC
  5
330
330
1F
100
AcDbEntity
  8
LAY-1
  6
CONTINUOUS
 62
     3
100
AcDbCircle
 10
663.21808192303
 20
48.48834575617514
 30
0.0
 40
10.48834575617502
100
AcDbArc
 50
243.0711548791757
 51
296.9288451208243
  0
LINE
  5
331
330
1F
100
AcDbEntity
  8
LAY-1
  6
CONTINUOUS
 62
     3
100
AcDbLine
 10
667.9680819230302
 20
38.0
 30
0.0
 11
658.4680819230302
 21
38.0
 31
0.0
  0
LINE
  5
332
330
1F
100
AcDbEntity
  8
LAY-1
  6
CONTINUOUS
 62
     3
100
AcDbLine
 10
667.9680819230302
 20
38.0
 30
0.0
 11
667.9680819230302
 21
46.00000000000011
 31
0.0
  0
LINE
  5
333
330
1F
100
AcDbEntity
  8
LAY-1
  6
CONTINUOUS
 62
     3
100
AcDbLine
 10
658.46808192303
 20
39.13725508711013
 30
0.0
 11
658.46808192303
 21
46.00000000000011
 31
0.0
  0
LINE
  5
334
330
1F
100
AcDbEntity
  8
LAY-1
  6
CONTINUOUS
 62
     3
100
AcDbLine
 10
712.4876378183901
 20
46.00000000000011
 30
0.0
 11
701.7376378183901
 21
46.00000000000011
 31
0.0
  0
LINE
  5
335
330
1F
100
AcDbEntity
  8
LAY-1
  6
CONTINUOUS
 62
     3
100
AcDbLine
 10
701.7376378183901
 20
48.99999999999989
 30
0.0
 11
701.7376378183901
 21
46.00000000000011
 31
0.0
  0
LINE
  5
336
330
1F
100
AcDbEntity
  8
LAY-1
  6
CONTINUOUS
 62
     3
100
AcDbLine
 10
712.4876378183901
 20
46.00000000000011
 30
0.0
 11
723.2376378183901
 21
46.00000000000014
 31
0.0
  0
LINE
  5
337
330
1F
100
AcDbEntity
  8
LAY-1
  6
CONTINUOUS
 62
     3
100
AcDbLine
 10
723.2376378183901
 20
48.99999999999991
 30
0.0
 11
723.2376378183901
 21
46.00000000000014
 31
0.0
  0
LINE
  5
338
330
1F
100
AcDbEntity
  8
LAY-1
  6
CONTINUOUS
 62
     3
100
AcDbLine
 10
702.9876378183899
 20
38.0
 30
0.0
 11
712.4876378183901
 21
38.0
 31
0.0
  0
ARC
  5
339
330
1F
100
AcDbEntity
  8
LAY-1
  6
CONTINUOUS
 62
     3
100
AcDbCircle
 10
707.7376378183901
 20
48.48834575617514
 30
0.0
 40
10.48834575617502
100
AcDbArc
 50
243.0711548791757
 51
296.9288451208243
  0
LINE
  5
33A
330
1F
100
AcDbEntity
  8
LAY-1
  6
CONTINUOUS
 62
     3
100
AcDbLine
 10
702.9876378183899
 20
38.0
 30
0.0
 11
702.9876378183899
 21
46.00000000000011
 31
0.0
  0
ARC
  5
33B
330
1F
100
AcDbEntity
  8
LAY-1
  6
CONTINUOUS
 62
     3
100
AcDbCircle
 10
717.2376378183901
 20
48.48834575617516
 30
0.0
 40
10.48834575617502
100
AcDbArc
 50
243.0711548791757
 51
296.9288451208243
  0
LINE
  5
33C
330
1F
100
AcDbEntity
  8
LAY-1
  6
CONTINUOUS
 62
     3
100
AcDbLine
 10
721.9876378183903
 20
38.00000000000003
 30
0.0
 11
712.4876378183903
 21
38.0
 31
0.0
  0
LINE
  5
33D
330
1F
100
AcDbEntity
  8
LAY-1
  6
CONTINUOUS
 62
     3
100
AcDbLine
 10
721.9876378183903
 20
38.00000000000003
 30
0.0
 11
721.9876378183903
 21
46.00000000000014
 31
0.0
  0
LINE
  5
33E
330
1F
100
AcDbEntity
  8
LAY-1
  6
CONTINUOUS
 62
     3
100
AcDbLine
 10
712.4876378183901
 20
39.13725508711013
 30
0.0
 11
712.4876378183901
 21
46.00000000000011
 31
0.0
  0
LINE
  5
33F
330
1F
100
AcDbEntity
  8
LAY-1
  6
CONTINUOUS
 62
     3
100
AcDbLine
 10
528.5123621816101
 20
46.00000000000003
 30
0.0
 11
526.51236218161
 21
49.00000000000003
 31
0.0
  0
LINE
  5
340
330
1F
100
AcDbEntity
  8
LAY-1
  6
CONTINUOUS
 62
     3
100
AcDbLine
 10
582.53191807697
 20
46.00000000000006
 30
0.0
 11
580.53191807697
 21
49.00000000000006
 31
0.0
  0
LINE
  5
341
330
1F
100
AcDbEntity
  8
LAY-1
  6
CONTINUOUS
 62
     3
100
AcDbLine
 10
659.4680819230296
 20
46.00000000000011
 30
0.0
 11
657.4680819230296
 21
49.00000000000011
 31
0.0
  0
LINE
  5
342
330
1F
100
AcDbEntity
  8
LAY-1
  6
CONTINUOUS
 62
     3
100
AcDbLine
 10
713.4876378183897
 20
46.00000000000011
 30
0.0
 11
711.4876378183897
 21
49.00000000000011
 31
0.0
  0
LINE
  5
343
330
1F
100
AcDbEntity
  8
LAY-1
  6
EXLTYPE2
 62
     1
100
AcDbLine
 10
506.0
 20
153.0
 30
0.0
 11
733.0
 21
153.0
 31
0.0
  0
LINE
  5
344
330
1F
100
AcDbEntity
  8
LAY-1
  6
EXLTYPE2
 62
     1
100
AcDbLine
 10
620.0
 20
275.0
 30
0.0
 11
620.0
 21
30.0
 31
0.0
  0
TEXT
  5
346
330
1F
100
AcDbEntity
  8
LAY-1
  6
CONTINUOUS
 62
     3
100
AcDbText
 10
553.9999999999999
 20
488.40625
 30
0.0
 40
6.833105335157319
  1
ＳＴＡＩＮＬＥＳＳ　ＳＴＥＥＬ
  7
EXCADTTF1
 72
     5
 11
703.9999999999999
 21
488.40625
 31
0.0
100
AcDbText
  0
TEXT
  5
347
330
1F
100
AcDbEntity
  8
LAY-1
  6
CONTINUOUS
 62
     3
100
AcDbText
 10
553.9999999999999
 20
468.40625
 30
0.0
 40
6.833105335157319
  1
ＳＩＧＨＴ　ＧＬＡＳＳ
  7
EXCADTTF1
 72
     5
 11
663.9999999999999
 21
468.40625
 31
0.0
100
AcDbText
  0
TEXT
  5
348
330
1F
100
AcDbEntity
  8
LAY-1
  6
CONTINUOUS
 62
     3
100
AcDbText
 10
553.9999999999999
 20
428.40625
 30
0.0
 40
6.833105335157319
  1
１０Ｋ－１００Ａ
  7
EXCADTTF1
 72
     5
 11
633.9999999999999
 21
428.40625
 31
0.0
100
AcDbText
  0
TEXT
  5
349
330
1F
100
AcDbEntity
  8
LAY-1
  6
CONTINUOUS
 62
     3
100
AcDbText
 10
553.9999999999999
 20
448.40625
 30
0.0
 40
6.833105335157319
  1
１０ＦＧＬ－４－１３Ａ
  7
EXCADTTF1
 72
     5
 11
663.9999999999999
 21
448.40625
 31
0.0
100
AcDbText
  0
LINE
  5
34A
330
1F
100
AcDbEntity
  8
LAY-1
  6
CONTINUOUS
 62
     3
100
AcDbLine
 10
215.2050807568946
 20
390.9999999999985
 30
0.0
 11
242.0000000000053
 21
490.9999999999986
 31
0.0
  0
LINE
  5
34B
330
1F
100
AcDbEntity
  8
LAY-1
  6
CONTINUOUS
 62
     3
100
AcDbLine
 10
215.2050807569
 20
391.0000000000004
 30
0.0
 11
193.9999999999995
 21
391.0000000000004
 31
0.0
  0
LINE
  5
34C
330
1F
100
AcDbEntity
  8
LAY-1
  6
CONTINUOUS
 62
     3
100
AcDbLine
 10
242.0000000000001
 20
491.0000000000002
 30
0.0
 11
208.0
 21
491.0000000000002
 31
0.0
  0
CIRCLE
  5
34D
330
1F
100
AcDbEntity
  8
LAY-1
  6
CONTINUOUS
 62
     3
100
AcDbCircle
 10
620.0
 20
153.0
 30
0.0
 40
46.8
  0
ENDSEC
  0
SECTION
  2
OBJECTS
  0
DICTIONARY
  5
C
330
0
100
AcDbDictionary
  3
ACAD_GROUP
350
D
  3
ACAD_LAYOUT
350
1A
  3
ACAD_MATERIAL
350
43
  3
ACAD_MLEADERSTYLE
350
6B
  3
ACAD_MLINESTYLE
350
17
  3
ACAD_PLOTSETTINGS
350
19
  3
ACAD_SCALELIST
350
47
  3
ACAD_VISUALSTYLE
350
2A
  3
ACDBHEADERROUNDTRIPXREC
350
34E
  3
ACDBVARIABLEDICTIONARY
350
36F
  0
DICTIONARY
  5
378
330
8
100
AcDbDictionary
280
     1
  3
ACAD_XREC_ROUNDTRIP
360
379
  0
DICTIONARY
  5
D
102
{ACAD_REACTORS
330
C
102
}
330
C
100
AcDbDictionary
  0
DICTIONARY
  5
1A
102
{ACAD_REACTORS
330
C
102
}
330
C
100
AcDbDictionary
  0
DICTIONARY
  5
43
102
{ACAD_REACTORS
330
C
102
}
330
C
100
AcDbDictionary
  3
BYBLOCK
350
45
  3
BYLAYER
350
44
  3
GLOBAL
350
46
  0
DICTIONARY
  5
6B
102
{ACAD_REACTORS
330
C
102
}
330
C
100
AcDbDictionary
  3
STANDARD
350
6C
  0
DICTIONARY
  5
17
102
{ACAD_REACTORS
330
C
102
}
330
C
100
AcDbDictionary
  3
STANDARD
350
18
  0
DICTIONARY
  5
19
102
{ACAD_REACTORS
330
C
102
}
330
C
100
AcDbDictionary
  0
DICTIONARY
  5
47
102
{ACAD_REACTORS
330
C
102
}
330
C
100
AcDbDictionary
  3
A0
350
48
  3
A1
350
49
  3
A2
350
4A
  3
A3
350
4B
  3
A4
350
4C
  3
A5
350
4D
  3
A6
350
4E
  3
A7
350
4F
  3
A8
350
50
  3
A9
350
51
  3
B0
350
52
  3
B1
350
53
  3
B2
350
54
  3
B3
350
55
  3
B4
350
56
  3
B5
350
57
  3
B6
350
58
  3
B7
350
59
  3
B8
350
5A
  3
B9
350
5B
  3
C0
350
5C
  3
C1
350
5D
  3
C2
350
5E
  3
C3
350
5F
  3
C4
350
60
  3
C5
350
61
  3
C6
350
62
  3
C7
350
63
  3
C8
350
64
  3
C9
350
65
  3
D0
350
66
  3
D1
350
67
  3
D2
350
68
  0
DICTIONARY
  5
2A
102
{ACAD_REACTORS
330
C
102
}
330
C
100
AcDbDictionary
  3
2DWIREFRAME
350
2F
  3
BASIC
350
32
  3
BRIGHTEN
350
36
  3
COLORCHANGE
350
3A
  3
CONCEPTUAL
350
34
  3
DIM
350
35
  3
EDGECOLOROFF
350
3D
  3
FACEPATTERN
350
39
  3
FLAT
350
2B
  3
FLATWITHEDGES
350
2C
  3
GOURAUD
350
2D
  3
GOURAUDWITHEDGES
350
2E
  3
HIDDEN
350
31
  3
JITTEROFF
350
3B
  3
LINEPATTERN
350
38
  3
OVERHANGOFF
350
3C
  3
REALISTIC
350
33
  3
SHADED
350
42
  3
SHADED_WITH_EDGES
350
41
  3
SHADES_OF_GRAY
350
3E
  3
SKETCHY
350
3F
  3
THICKEN
350
37
  3
WIREFRAME
350
30
  3
X-RAY
350
40
  0
DICTIONARY
  5
34E
102
{ACAD_REACTORS
330
C
102
}
330
C
100
AcDbDictionary
  3
CEPSNID
350
358
  3
CEPSNTYPE
350
357
  3
DIMSTYLEDATA
350
36E
  3
FINGERPRINTGUID
350
359
  3
HYPERLINKBASE
350
351
  3
INSUNITS
350
356
  3
LAYOUTDICT
350
353
  3
LWETCUNION
350
355
  3
PLOTSETDICT
350
354
  3
PSVPSCALE
350
35B
  3
PUCSBASE
350
35E
  3
PUCSORGBACK
350
364
  3
PUCSORGBOTTOM
350
360
  3
PUCSORGFRONT
350
363
  3
PUCSORGLEFT
350
361
  3
PUCSORGRIGHT
350
362
  3
PUCSORGTOP
350
35F
  3
PUCSORTHOREF
350
35C
  3
PUCSORTHOVIEW
350
35D
  3
STYLESHEET
350
352
  3
TSTACKALIGN
350
34F
  3
TSTACKSIZE
350
350
  3
UCSBASE
350
367
  3
UCSORGBACK
350
36D
  3
UCSORGBOTTOM
350
369
  3
UCSORGFRONT
350
36C
  3
UCSORGLEFT
350
36A
  3
UCSORGRIGHT
350
36B
  3
UCSORGTOP
350
368
  3
UCSORTHOREF
350
365
  3
UCSORTHOVIEW
350
366
  3
VERSIONGUID
350
35A
  0
DICTIONARY
  5
36F
102
{ACAD_REACTORS
330
C
102
}
330
C
100
AcDbDictionary
  3
CANNOSCALE
350
37A
  3
CMLEADERSTYLE
350
371
  3
CTABLESTYLE
350
370
  3
DIMASSOC
350
376
  3
HIDETEXT
350
377
  3
MSLTSCALE
350
37B
  3
PSOLHEIGHT
350
373
  3
PSOLWIDTH
350
372
  0
XRECORD
  5
379
102
{ACAD_REACTORS
330
378
102
}
330
378
100
AcDbXrecord
102
VTR_0.000_0.000_1.000_1.000_VISUALSTYLE
340
2F
102
VTR_0.000_0.000_1.000_1.000_GRIDDISPLAY
 70
     3
102
VTR_0.000_0.000_1.000_1.000_GRIDMAJOR
 70
     5
102
VTR_0.000_0.000_1.000_1.000_DEFAULTLIGHTING
280
     1
102
VTR_0.000_0.000_1.000_1.000_DEFAULTLIGHTINGTYPE
 70
     1
102
VTR_0.000_0.000_1.000_1.000_BRIGHTNESS
141
0.0
102
VTR_0.000_0.000_1.000_1.000_CONTRAST
142
0.0
  0
MATERIAL
  5
45
102
{ACAD_REACTORS
330
43
102
}
102
{ACAD_XDICTIONARY
360
37E
102
}
330
43
100
AcDbMaterial
  1
BYBLOCK
  0
MATERIAL
  5
44
102
{ACAD_REACTORS
330
43
102
}
102
{ACAD_XDICTIONARY
360
37C
102
}
330
43
100
AcDbMaterial
  1
BYLAYER
  0
MATERIAL
  5
46
102
{ACAD_REACTORS
330
43
102
}
102
{ACAD_XDICTIONARY
360
380
102
}
330
43
100
AcDbMaterial
  1
GLOBAL
  0
ACAD_PROXY_OBJECT
  5
6C
102
{ACAD_REACTORS
330
6B
102
}
330
6B
100
AcDbProxyObject
 90
      499
 91
      505
 93
      610
310
40901902A4063FBFFFFFE0000000000000020400000000000020404214DD185B99185C990000000000000104090141901A00000000000004100000000000000041025764000000000000039000
340
14
340
0
340
11
340
0
 94
        0
1001
ACAD_MLEADERVER
1070
     2
  0
MLINESTYLE
  5
18
102
{ACAD_REACTORS
330
17
102
}
330
17
100
AcDbMlineStyle
  2
Standard
 70
     0
  3

 62
   256
 51
90.0
 52
90.0
 71
     2
 49
0.5
 62
   256
  6
BYLAYER
 49
-0.5
 62
   256
  6
BYLAYER
  0
ACAD_PROXY_OBJECT
  5
48
102
{ACAD_REACTORS
330
47
102
}
330
47
100
AcDbProxyObject
 90
      499
 91
      503
 93
       41
310
903313A31580
  0
ACAD_PROXY_OBJECT
  5
49
102
{ACAD_REACTORS
330
47
102
}
330
47
100
AcDbProxyObject
 90
      499
 91
      503
 93
      105
310
903313A324000000000000004000
  0
ACAD_PROXY_OBJECT
  5
4A
102
{ACAD_REACTORS
330
47
102
}
330
47
100
AcDbProxyObject
 90
      499
 91
      503
 93
      105
310
903313A344000000000000104000
  0
ACAD_PROXY_OBJECT
  5
4B
102
{ACAD_REACTORS
330
47
102
}
330
47
100
AcDbProxyObject
 90
      499
 91
      503
 93
      105
310
903313A354000000000000144000
  0
ACAD_PROXY_OBJECT
  5
4C
102
{ACAD_REACTORS
330
47
102
}
330
47
100
AcDbProxyObject
 90
      499
 91
      503
 93
      105
310
903313A384000000000000204000
  0
ACAD_PROXY_OBJECT
  5
4D
102
{ACAD_REACTORS
330
47
102
}
330
47
100
AcDbProxyObject
 90
      499
 91
      503
 93
      113
310
904313A31304000000000000244000
  0
ACAD_PROXY_OBJECT
  5
4E
102
{ACAD_REACTORS
330
47
102
}
330
47
100
AcDbProxyObject
 90
      499
 91
      503
 93
      113
310
904313A31364000000000000304000
  0
ACAD_PROXY_OBJECT
  5
4F
102
{ACAD_REACTORS
330
47
102
}
330
47
100
AcDbProxyObject
 90
      499
 91
      503
 93
      113
310
904313A32304000000000000344000
  0
ACAD_PROXY_OBJECT
  5
50
102
{ACAD_REACTORS
330
47
102
}
330
47
100
AcDbProxyObject
 90
      499
 91
      503
 93
      113
310
904313A333040000000000003E4000
  0
ACAD_PROXY_OBJECT
  5
51
102
{ACAD_REACTORS
330
47
102
}
330
47
100
AcDbProxyObject
 90
      499
 91
      503
 93
      113
310
904313A34304000000000000444000
  0
ACAD_PROXY_OBJECT
  5
52
102
{ACAD_REACTORS
330
47
102
}
330
47
100
AcDbProxyObject
 90
      499
 91
      503
 93
      113
310
904313A35304000000000000494000
  0
ACAD_PROXY_OBJECT
  5
53
102
{ACAD_REACTORS
330
47
102
}
330
47
100
AcDbProxyObject
 90
      499
 91
      503
 93
      121
310
905313A3130304000000000000594000
  0
ACAD_PROXY_OBJECT
  5
54
102
{ACAD_REACTORS
330
47
102
}
330
47
100
AcDbProxyObject
 90
      499
 91
      503
 93
      105
310
903323A310000000000000010100
  0
ACAD_PROXY_OBJECT
  5
55
102
{ACAD_REACTORS
330
47
102
}
330
47
100
AcDbProxyObject
 90
      499
 91
      503
 93
      105
310
903343A310000000000000410100
  0
ACAD_PROXY_OBJECT
  5
56
102
{ACAD_REACTORS
330
47
102
}
330
47
100
AcDbProxyObject
 90
      499
 91
      503
 93
      105
310
903383A310000000000000810100
  0
ACAD_PROXY_OBJECT
  5
57
102
{ACAD_REACTORS
330
47
102
}
330
47
100
AcDbProxyObject
 90
      499
 91
      503
 93
      113
310
90431303A310000000000000910100
  0
ACAD_PROXY_OBJECT
  5
58
102
{ACAD_REACTORS
330
47
102
}
330
47
100
AcDbProxyObject
 90
      499
 91
      503
 93
      121
310
9053130303A310000000000001650100
  0
ACAD_PROXY_OBJECT
  5
59
102
{ACAD_REACTORS
330
47
102
}
330
47
100
AcDbProxyObject
 90
      499
 91
      503
 93
      257
310
90E312F31323822203D2031272D3022000000000000200FC000000000000284000
  0
ACAD_PROXY_OBJECT
  5
5A
102
{ACAD_REACTORS
330
47
102
}
330
47
100
AcDbProxyObject
 90
      499
 91
      503
 93
      249
310
90D312F363422203D2031272D3022000000000000240FC000000000000284000
  0
ACAD_PROXY_OBJECT
  5
5B
102
{ACAD_REACTORS
330
47
102
}
330
47
100
AcDbProxyObject
 90
      499
 91
      503
 93
      249
310
90D312F333222203D2031272D3022000000000000280FC000000000000284000
  0
ACAD_PROXY_OBJECT
  5
5C
102
{ACAD_REACTORS
330
47
102
}
330
47
100
AcDbProxyObject
 90
      499
 91
      503
 93
      249
310
90D312F313622203D2031272D30220000000000002C0FC000000000000284000
  0
ACAD_PROXY_OBJECT
  5
5D
102
{ACAD_REACTORS
330
47
102
}
330
47
100
AcDbProxyObject
 90
      499
 91
      503
 93
      249
310
90D332F333222203D2031272D30220000000000002E0FC000000000000284000
  0
ACAD_PROXY_OBJECT
  5
5E
102
{ACAD_REACTORS
330
47
102
}
330
47
100
AcDbProxyObject
 90
      499
 91
      503
 93
      241
310
90C312F3822203D2031272D3022000000000000300FC000000000000284000
  0
ACAD_PROXY_OBJECT
  5
5F
102
{ACAD_REACTORS
330
47
102
}
330
47
100
AcDbProxyObject
 90
      499
 91
      503
 93
      249
310
90D332F313622203D2031272D3022000000000000320FC000000000000284000
  0
ACAD_PROXY_OBJECT
  5
60
102
{ACAD_REACTORS
330
47
102
}
330
47
100
AcDbProxyObject
 90
      499
 91
      503
 93
      241
310
90C312F3422203D2031272D3022000000000000340FC000000000000284000
  0
ACAD_PROXY_OBJECT
  5
61
102
{ACAD_REACTORS
330
47
102
}
330
47
100
AcDbProxyObject
 90
      499
 91
      503
 93
      241
310
90C332F3822203D2031272D3022000000000000360FC000000000000284000
  0
ACAD_PROXY_OBJECT
  5
62
102
{ACAD_REACTORS
330
47
102
}
330
47
100
AcDbProxyObject
 90
      499
 91
      503
 93
      241
310
90C312F3222203D2031272D3022000000000000380FC000000000000284000
  0
ACAD_PROXY_OBJECT
  5
63
102
{ACAD_REACTORS
330
47
102
}
330
47
100
AcDbProxyObject
 90
      499
 91
      503
 93
      241
310
90C332F3422203D2031272D30220000000000003A0FC000000000000284000
  0
ACAD_PROXY_OBJECT
  5
64
102
{ACAD_REACTORS
330
47
102
}
330
47
100
AcDbProxyObject
 90
      499
 91
      503
 93
      161
310
90A3122203D2031272D30224000000000000284000
  0
ACAD_PROXY_OBJECT
  5
65
102
{ACAD_REACTORS
330
47
102
}
330
47
100
AcDbProxyObject
 90
      499
 91
      503
 93
      257
310
90E312D312F3222203D2031272D30220000000000003E0FC000000000000284000
  0
ACAD_PROXY_OBJECT
  5
66
102
{ACAD_REACTORS
330
47
102
}
330
47
100
AcDbProxyObject
 90
      499
 91
      503
 93
      225
310
90A3322203D2031272D302200000000000002100000000000000284000
  0
ACAD_PROXY_OBJECT
  5
67
102
{ACAD_REACTORS
330
47
102
}
330
47
100
AcDbProxyObject
 90
      499
 91
      503
 93
      225
310
90A3622203D2031272D302200000000000006100000000000000284000
  0
ACAD_PROXY_OBJECT
  5
68
102
{ACAD_REACTORS
330
47
102
}
330
47
100
AcDbProxyObject
 90
      499
 91
      503
 93
      249
310
90D31272D3022203D2031272D30220000000000000A100000000000000284000
  0
ACAD_PROXY_OBJECT
  5
2F
102
{ACAD_REACTORS
330
2A
102
}
330
2A
100
AcDbProxyObject
 90
      499
 91
      501
 93
      436
310
42CC9915DA5C99599C985B595049028333333333333E33F0000000000000F90107901411070040501600405405064090741402480A0340
1001
ACAD
1000
AcDbSavedByObjectVersion
1070
     0
  0
ACAD_PROXY_OBJECT
  5
32
102
{ACAD_REACTORS
330
2A
102
}
330
2A
100
AcDbProxyObject
 90
      499
 91
      501
 93
      388
310
4150985CDA58D07406404333333333333E33F0000000000000F90107A41107004050150841D405064090741402480A0350
1001
ACAD
1000
AcDbSavedByObjectVersion
1070
     0
  0
ACAD_PROXY_OBJECT
  5
36
102
{ACAD_REACTORS
330
2A
102
}
330
2A
100
AcDbProxyObject
 90
      499
 91
      501
 93
      428
310
42109C9A59DA1D195B90C409028333333333333E33F0000000000000F9010790141107004050150841D405064090741402480A029950
1001
ACAD
1000
AcDbSavedByObjectVersion
1070
     0
  0
ACAD_PROXY_OBJECT
  5
3A
102
{ACAD_REACTORS
330
2A
102
}
330
2A
100
AcDbProxyObject
 90
      499
 91
      501
 93
      452
310
42D0DBDB1BDC90DA185B99D95104090240C333333333333E33F0000000000000F90108901411070040501508421405064090741402480A0350
1001
ACAD
1000
AcDbSavedByObjectVersion
1070
     0
  0
ACAD_PROXY_OBJECT
  5
34
102
{ACAD_REACTORS
330
2A
102
}
330
2A
100
AcDbProxyObject
 90
      499
 91
      501
 93
      500
310
4290DBDB98D95C1D1D585B10940D028333333333333E33F0000000000000F90107902409070040501000000000018199010841D405064090740C02480A0340
1001
ACAD
1000
AcDbSavedByObjectVersion
1070
     0
  0
ACAD_PROXY_OBJECT
  5
35
102
{ACAD_REACTORS
330
2A
102
}
330
2A
100
AcDbProxyObject
 90
      499
 91
      501
 93
      412
310
40D11A5B50B409028333333333333E33F0000000000000F9010790141107004050150841D405064090741402480A02677FFFFFD0
1001
ACAD
1000
AcDbSavedByObjectVersion
1070
     0
  0
ACAD_PROXY_OBJECT
  5
3D
102
{ACAD_REACTORS
330
2A
102
}
330
2A
100
AcDbProxyObject
 90
      499
 91
      501
 93
      452
310
43115919D950DBDB1BDC93D999916409028333333333333E33F0000000000000F9010790141107004050150841D405064090741402480A0350
1001
ACAD
1000
AcDbSavedByObjectVersion
1070
     0
  0
ACAD_PROXY_OBJECT
  5
39
102
{ACAD_REACTORS
330
2A
102
}
330
2A
100
AcDbProxyObject
 90
      499
 91
      501
 93
      444
310
42D19858D95C185D1D195C9B90F409028333333333333E33F0000000000000F9010790141107004050150841D405064090741402480A0350
1001
ACAD
1000
AcDbSavedByObjectVersion
1070
     0
  0
ACAD_PROXY_OBJECT
  5
2B
102
{ACAD_REACTORS
330
2A
102
}
330
2A
100
AcDbProxyObject
 90
      499
 91
      501
 93
      380
310
41119B185D240901404333333333333E33F0000000000000F9010740A907004050150841D405064090741402480A1B50
1001
ACAD
1000
AcDbSavedByObjectVersion
1070
     0
  0
ACAD_PROXY_OBJECT
  5
2C
102
{ACAD_REACTORS
330
2A
102
}
330
2A
100
AcDbProxyObject
 90
      499
 91
      501
 93
      468
310
43519B185D15DA5D1A115919D95CD0140901404333333333333E33F0000000000000F90107409019070040501600405405064090741402480A1B50
1001
ACAD
1000
AcDbSavedByObjectVersion
1070
     0
  0
ACAD_PROXY_OBJECT
  5
2D
102
{ACAD_REACTORS
330
2A
102
}
330
2A
100
AcDbProxyObject
 90
      499
 91
      501
 93
      404
310
41D1DBDD5C985D5910240902404333333333333E33F0000000000000F9010740A9070040501641D405064090741402480A1B50
1001
ACAD
1000
AcDbSavedByObjectVersion
1070
     0
  0
ACAD_PROXY_OBJECT
  5
2E
102
{ACAD_REACTORS
330
2A
102
}
330
2A
100
AcDbProxyObject
 90
      499
 91
      501
 93
      492
310
4411DBDD5C985D5915DA5D1A115919D95CD0340902404333333333333E33F0000000000000F90107409019070040501600405405064090741402480A1B50
1001
ACAD
1000
AcDbSavedByObjectVersion
1070
     0
  0
ACAD_PROXY_OBJECT
  5
31
102
{ACAD_REACTORS
330
2A
102
}
330
2A
100
AcDbProxyObject
 90
      499
 91
      501
 93
      476
310
41921A5919195B90640502408333333333333E33F0000000000000F901079024090700405020000000000001110200405405064090740C02480A0340
1001
ACAD
1000
AcDbSavedByObjectVersion
1070
     0
  0
ACAD_PROXY_OBJECT
  5
3B
102
{ACAD_REACTORS
330
2A
102
}
330
2A
100
AcDbProxyObject
 90
      499
 91
      501
 93
      428
310
42529A5D1D195C93D999914409028333333333333E33F0000000000000F9010790141107004050150A41D405064090741402480A0350
1001
ACAD
1000
AcDbSavedByObjectVersion
1070
     0
  0
ACAD_PROXY_OBJECT
  5
38
102
{ACAD_REACTORS
330
2A
102
}
330
2A
100
AcDbProxyObject
 90
      499
 91
      501
 93
      444
310
42D31A5B995C185D1D195C9B90E409028333333333333E33F0000000000000F9010790141107004050750841D405064090741402483A0350
1001
ACAD
1000
AcDbSavedByObjectVersion
1070
     0
  0
ACAD_PROXY_OBJECT
  5
3C
102
{ACAD_REACTORS
330
2A
102
}
330
2A
100
AcDbProxyObject
 90
      499
 91
      501
 93
      444
310
42D3DD995C9A185B99D3D999915409028333333333333E33F0000000000000F9010790141107004050150941D405064090741402480A0350
1001
ACAD
1000
AcDbSavedByObjectVersion
1070
     0
  0
ACAD_PROXY_OBJECT
  5
33
102
{ACAD_REACTORS
330
2A
102
}
330
2A
100
AcDbProxyObject
 90
      499
 91
      501
 93
      428
310
425499585B1A5CDD1A58D08409038333333333333E33F0000000000000F9010740A907004050150800405405064090740C02480A1B40
1001
ACAD
1000
AcDbSavedByObjectVersion
1070
     0
  0
ACAD_PROXY_OBJECT
  5
42
102
{ACAD_REACTORS
330
2A
102
}
330
2A
100
AcDbProxyObject
 90
      499
 91
      501
 93
      420
310
4194DA1859195911B40902404333333333333E33F0000000000000F9010740A41107004050150800405405064090840C02480A0B40
1001
ACAD
1000
AcDbSavedByObjectVersion
1070
     0
  0
ACAD_PROXY_OBJECT
  5
41
102
{ACAD_REACTORS
330
2A
102
}
330
2A
100
AcDbProxyObject
 90
      499
 91
      501
 93
      516
310
4454DA18591959081DDA5D1A08195919D95CD1A40902404333333333333E33F0000000000000F901074090142907004050250800405405064090740C02480A0B40
1001
ACAD
1000
AcDbSavedByObjectVersion
1070
     0
  0
ACAD_PROXY_OBJECT
  5
3E
102
{ACAD_REACTORS
330
2A
102
}
330
2A
100
AcDbProxyObject
 90
      499
 91
      501
 93
      532
310
4394DA1859195CC81BD98811DC985E5174090240C333333333333E33F0000000000000F901079024090741D01000000000000111010841D405064090740C02480A0340
1001
ACAD
1000
AcDbSavedByObjectVersion
1070
     0
  0
ACAD_PROXY_OBJECT
  5
3F
102
{ACAD_REACTORS
330
2A
102
}
330
2A
100
AcDbProxyObject
 90
      499
 91
      501
 93
      476
310
41D4DAD95D18DA1E51840502408333333333333E33F0000000000000F901079024090741D01000000000000111010B41D405064090741802480A0340
1001
ACAD
1000
AcDbSavedByObjectVersion
1070
     0
  0
ACAD_PROXY_OBJECT
  5
37
102
{ACAD_REACTORS
330
2A
102
}
330
2A
100
AcDbProxyObject
 90
      499
 91
      501
 93
      412
310
41D51A1A58DAD95B90D409028333333333333E33F0000000000000F9010790141107004050150C41D405064090741402480A0350
1001
ACAD
1000
AcDbSavedByObjectVersion
1070
     0
  0
ACAD_PROXY_OBJECT
  5
30
102
{ACAD_REACTORS
330
2A
102
}
330
2A
100
AcDbProxyObject
 90
      499
 91
      501
 93
      420
310
4255DA5C99599C985B595059028333333333333E33F0000000000000F90107901411070040501600405405064090740C02480A0340
1001
ACAD
1000
AcDbSavedByObjectVersion
1070
     0
  0
ACAD_PROXY_OBJECT
  5
40
102
{ACAD_REACTORS
330
2A
102
}
330
2A
100
AcDbProxyObject
 90
      499
 91
      501
 93
      404
310
41560B54985E51940902404000000000000E03F0000000000000F9010740501907004050150841D405064090740C02480A1B40
1001
ACAD
1000
AcDbSavedByObjectVersion
1070
     0
  0
XRECORD
  5
358
102
{ACAD_REACTORS
330
34E
102
}
330
34E
100
AcDbXrecord
340
0
  0
XRECORD
  5
357
102
{ACAD_REACTORS
330
34E
102
}
330
34E
100
AcDbXrecord
 90
        0
  0
XRECORD
  5
36E
102
{ACAD_REACTORS
330
34E
102
}
330
34E
100
AcDbXrecord
1000
DSTYLE
1002
{
1070
   340
340
11
1002
}
  0
XRECORD
  5
359
102
{ACAD_REACTORS
330
34E
102
}
330
34E
100
AcDbXrecord
  1
{BC939002-8489-4AFE-89A1-F4BF23844689}
  0
XRECORD
  5
351
102
{ACAD_REACTORS
330
34E
102
}
330
34E
100
AcDbXrecord
  1

  0
XRECORD
  5
356
102
{ACAD_REACTORS
330
34E
102
}
330
34E
100
AcDbXrecord
 90
        4
  0
XRECORD
  5
353
102
{ACAD_REACTORS
330
34E
102
}
330
34E
100
AcDbXrecord
340
1A
  0
XRECORD
  5
355
102
{ACAD_REACTORS
330
34E
102
}
330
34E
100
AcDbXrecord
 90
    10781
  0
XRECORD
  5
354
102
{ACAD_REACTORS
330
34E
102
}
330
34E
100
AcDbXrecord
340
19
  0
XRECORD
  5
35B
102
{ACAD_REACTORS
330
34E
102
}
330
34E
100
AcDbXrecord
 40
0.0
  0
XRECORD
  5
35E
102
{ACAD_REACTORS
330
34E
102
}
330
34E
100
AcDbXrecord
340
0
  0
XRECORD
  5
364
102
{ACAD_REACTORS
330
34E
102
}
330
34E
100
AcDbXrecord
 10
0.0
 20
0.0
 30
0.0
  0
XRECORD
  5
360
102
{ACAD_REACTORS
330
34E
102
}
330
34E
100
AcDbXrecord
 10
0.0
 20
0.0
 30
0.0
  0
XRECORD
  5
363
102
{ACAD_REACTORS
330
34E
102
}
330
34E
100
AcDbXrecord
 10
0.0
 20
0.0
 30
0.0
  0
XRECORD
  5
361
102
{ACAD_REACTORS
330
34E
102
}
330
34E
100
AcDbXrecord
 10
0.0
 20
0.0
 30
0.0
  0
XRECORD
  5
362
102
{ACAD_REACTORS
330
34E
102
}
330
34E
100
AcDbXrecord
 10
0.0
 20
0.0
 30
0.0
  0
XRECORD
  5
35F
102
{ACAD_REACTORS
330
34E
102
}
330
34E
100
AcDbXrecord
 10
0.0
 20
0.0
 30
0.0
  0
XRECORD
  5
35C
102
{ACAD_REACTORS
330
34E
102
}
330
34E
100
AcDbXrecord
340
0
  0
XRECORD
  5
35D
102
{ACAD_REACTORS
330
34E
102
}
330
34E
100
AcDbXrecord
 70
     0
  0
XRECORD
  5
352
102
{ACAD_REACTORS
330
34E
102
}
330
34E
100
AcDbXrecord
  1

  0
XRECORD
  5
34F
102
{ACAD_REACTORS
330
34E
102
}
330
34E
100
AcDbXrecord
 90
        1
  0
XRECORD
  5
350
102
{ACAD_REACTORS
330
34E
102
}
330
34E
100
AcDbXrecord
 90
       70
  0
XRECORD
  5
367
102
{ACAD_REACTORS
330
34E
102
}
330
34E
100
AcDbXrecord
340
0
  0
XRECORD
  5
36D
102
{ACAD_REACTORS
330
34E
102
}
330
34E
100
AcDbXrecord
 10
0.0
 20
0.0
 30
0.0
  0
XRECORD
  5
369
102
{ACAD_REACTORS
330
34E
102
}
330
34E
100
AcDbXrecord
 10
0.0
 20
0.0
 30
0.0
  0
XRECORD
  5
36C
102
{ACAD_REACTORS
330
34E
102
}
330
34E
100
AcDbXrecord
 10
0.0
 20
0.0
 30
0.0
  0
XRECORD
  5
36A
102
{ACAD_REACTORS
330
34E
102
}
330
34E
100
AcDbXrecord
 10
0.0
 20
0.0
 30
0.0
  0
XRECORD
  5
36B
102
{ACAD_REACTORS
330
34E
102
}
330
34E
100
AcDbXrecord
 10
0.0
 20
0.0
 30
0.0
  0
XRECORD
  5
368
102
{ACAD_REACTORS
330
34E
102
}
330
34E
100
AcDbXrecord
 10
0.0
 20
0.0
 30
0.0
  0
XRECORD
  5
365
102
{ACAD_REACTORS
330
34E
102
}
330
34E
100
AcDbXrecord
340
0
  0
XRECORD
  5
366
102
{ACAD_REACTORS
330
34E
102
}
330
34E
100
AcDbXrecord
 70
     0
  0
XRECORD
  5
35A
102
{ACAD_REACTORS
330
34E
102
}
330
34E
100
AcDbXrecord
  1
{FAEB1C32-E019-11D5-929B-00C0DF256EC4}
  0
DICTIONARYVAR
  5
37A
102
{ACAD_REACTORS
330
36F
102
}
330
36F
100
DictionaryVariables
280
     0
  1
1:1
  0
DICTIONARYVAR
  5
371
102
{ACAD_REACTORS
330
36F
102
}
330
36F
100
DictionaryVariables
280
     0
  1
Standard
  0
DICTIONARYVAR
  5
370
102
{ACAD_REACTORS
330
36F
102
}
330
36F
100
DictionaryVariables
280
     0
  1
Standard
  0
DICTIONARYVAR
  5
376
102
{ACAD_REACTORS
330
36F
102
}
330
36F
100
DictionaryVariables
280
     0
  1
2
  0
DICTIONARYVAR
  5
377
102
{ACAD_REACTORS
330
36F
102
}
330
36F
100
DictionaryVariables
280
     0
  1
1
  0
DICTIONARYVAR
  5
37B
102
{ACAD_REACTORS
330
36F
102
}
330
36F
100
DictionaryVariables
280
     0
  1
1
  0
DICTIONARYVAR
  5
373
102
{ACAD_REACTORS
330
36F
102
}
330
36F
100
DictionaryVariables
280
     0
  1
80.000000
  0
DICTIONARYVAR
  5
372
102
{ACAD_REACTORS
330
36F
102
}
330
36F
100
DictionaryVariables
280
     0
  1
5.000000
  0
DICTIONARY
  5
37E
330
45
100
AcDbDictionary
280
     1
  3
ACAD_XREC_ROUNDTRIP
360
37F
  0
DICTIONARY
  5
37C
330
44
100
AcDbDictionary
280
     1
  3
ACAD_XREC_ROUNDTRIP
360
37D
  0
DICTIONARY
  5
380
330
46
100
AcDbDictionary
280
     1
  3
ACAD_XREC_ROUNDTRIP
360
381
  0
XRECORD
  5
37F
102
{ACAD_REACTORS
330
37E
102
}
330
37E
100
AcDbXrecord
102
MATERIAL
148
0.0
149
0.0
149
0.0
 93
        0
 94
      127
282
     0
 72
     1
 77
     1
171
     1
175
     1
179
     1
273
     0
  0
XRECORD
  5
37D
102
{ACAD_REACTORS
330
37C
102
}
330
37C
100
AcDbXrecord
102
MATERIAL
148
0.0
149
0.0
149
0.0
 93
        0
 94
      127
282
     0
 72
     1
 77
     1
171
     1
175
     1
179
     1
273
     0
  0
XRECORD
  5
381
102
{ACAD_REACTORS
330
380
102
}
330
380
100
AcDbXrecord
102
MATERIAL
148
0.0
149
0.0
149
0.0
 93
        0
 94
      127
282
     0
 72
     1
 77
     1
171
     1
175
     1
179
     1
273
     0
  0
ENDSEC
  0
EOF
