  0
SECTION
  2
HEADER
  9
$ACADVER
  1
AC1014
  9
$ACADMAINTVER
 70
     9
  9
$DWGCODEPAGE
  3
ANSI_932
  9
$INSBASE
 10
0.0
 20
0.0
 30
0.0
  9
$EXTMIN
 10
108.7
 20
21.0
 30
0.0
  9
$EXTMAX
 10
694.0
 20
550.5
 30
0.0
  9
$LIMMIN
 10
0.0
 20
0.0
  9
$LIMMAX
 10
841.0
 20
594.0
  9
$ORTHOMODE
 70
     0
  9
$REGENMODE
 70
     1
  9
$FILLMODE
 70
     1
  9
$QTEXTMODE
 70
     0
  9
$MIRRTEXT
 70
     1
  9
$DRAGMODE
 70
     2
  9
$LTSCALE
 40
1.0
  9
$OSMODE
 70
    37
  9
$ATTMODE
 70
     1
  9
$TEXTSIZE
 40
2.5
  9
$TRACEWID
 40
1.0
  9
$TEXTSTYLE
  7
STANDARD
  9
$CLAYER
  8
LAY-1
  9
$CELTYPE
  6
BYLAYER
  9
$CECOLOR
 62
   256
  9
$CELTSCALE
 40
1.0
  9
$DELOBJ
 70
     1
  9
$DISPSILH
 70
     0
  9
$DIMSCALE
 40
1.0
  9
$DIMASZ
 40
2.5
  9
$DIMEXO
 40
0.625
  9
$DIMDLI
 40
3.75
  9
$DIMRND
 40
0.0
  9
$DIMDLE
 40
0.0
  9
$DIMEXE
 40
1.25
  9
$DIMTP
 40
0.0
  9
$DIMTM
 40
0.0
  9
$DIMTXT
 40
2.5
  9
$DIMCEN
 40
2.5
  9
$DIMTSZ
 40
0.0
  9
$DIMTOL
 70
     0
  9
$DIMLIM
 70
     0
  9
$DIMTIH
 70
     0
  9
$DIMTOH
 70
     0
  9
$DIMSE1
 70
     0
  9
$DIMSE2
 70
     0
  9
$DIMTAD
 70
     1
  9
$DIMZIN
 70
     8
  9
$DIMBLK
  1

  9
$DIMASO
 70
     1
  9
$DIMSHO
 70
     1
  9
$DIMPOST
  1

  9
$DIMAPOST
  1

  9
$DIMALT
 70
     0
  9
$DIMALTD
 70
     3
  9
$DIMALTF
 40
0.03937007874016
  9
$DIMLFAC
 40
1.0
  9
$DIMTOFL
 70
     1
  9
$DIMTVP
 40
0.0
  9
$DIMTIX
 70
     0
  9
$DIMSOXD
 70
     0
  9
$DIMSAH
 70
     0
  9
$DIMBLK1
  1

  9
$DIMBLK2
  1

  9
$DIMSTYLE
  2
ISO-25
  9
$DIMCLRD
 70
     0
  9
$DIMCLRE
 70
     0
  9
$DIMCLRT
 70
     0
  9
$DIMTFAC
 40
1.0
  9
$DIMGAP
 40
0.625
  9
$DIMJUST
 70
     0
  9
$DIMSD1
 70
     0
  9
$DIMSD2
 70
     0
  9
$DIMTOLJ
 70
     0
  9
$DIMTZIN
 70
     8
  9
$DIMALTZ
 70
     0
  9
$DIMALTTZ
 70
     0
  9
$DIMFIT
 70
     3
  9
$DIMUPT
 70
     0
  9
$DIMUNIT
 70
     2
  9
$DIMDEC
 70
     2
  9
$DIMTDEC
 70
     2
  9
$DIMALTU
 70
     2
  9
$DIMALTTD
 70
     3
  9
$DIMTXSTY
  7
STANDARD
  9
$DIMAUNIT
 70
     0
  9
$LUNITS
 70
     2
  9
$LUPREC
 70
     4
  9
$SKETCHINC
 40
1.0
  9
$FILLETRAD
 40
10.0
  9
$AUNITS
 70
     0
  9
$AUPREC
 70
     0
  9
$MENU
  1
.
  9
$ELEVATION
 40
0.0
  9
$PELEVATION
 40
0.0
  9
$THICKNESS
 40
0.0
  9
$LIMCHECK
 70
     0
  9
$CHAMFERA
 40
0.0
  9
$CHAMFERB
 40
0.0
  9
$CHAMFERC
 40
0.0
  9
$CHAMFERD
 40
0.0
  9
$SKPOLY
 70
     0
  9
$TDCREATE
 40
2457423.458860382
  9
$TDUPDATE
 40
2457423.458860556
  9
$TDINDWG
 40
0.0000000116
  9
$TDUSRTIMER
 40
0.0000000116
  9
$USRTIMER
 70
     1
  9
$ANGBASE
 50
0.0
  9
$ANGDIR
 70
     0
  9
$PDMODE
 70
     0
  9
$PDSIZE
 40
0.0
  9
$PLINEWID
 40
0.0
  9
$COORDS
 70
     1
  9
$SPLFRAME
 70
     0
  9
$SPLINETYPE
 70
     6
  9
$SPLINESEGS
 70
     8
  9
$ATTDIA
 70
     0
  9
$ATTREQ
 70
     1
  9
$HANDLING
 70
     1
  9
$HANDSEED
  5
786
  9
$SURFTAB1
 70
     6
  9
$SURFTAB2
 70
     6
  9
$SURFTYPE
 70
     6
  9
$SURFU
 70
     6
  9
$SURFV
 70
     6
  9
$UCSNAME
  2

  9
$UCSORG
 10
0.0
 20
0.0
 30
0.0
  9
$UCSXDIR
 10
1.0
 20
0.0
 30
0.0
  9
$UCSYDIR
 10
0.0
 20
1.0
 30
0.0
  9
$PUCSNAME
  2

  9
$PUCSORG
 10
0.0
 20
0.0
 30
0.0
  9
$PUCSXDIR
 10
1.0
 20
0.0
 30
0.0
  9
$PUCSYDIR
 10
0.0
 20
1.0
 30
0.0
  9
$USERI1
 70
     0
  9
$USERI2
 70
     0
  9
$USERI3
 70
     0
  9
$USERI4
 70
     0
  9
$USERI5
 70
     0
  9
$USERR1
 40
0.0
  9
$USERR2
 40
0.0
  9
$USERR3
 40
0.0
  9
$USERR4
 40
0.0
  9
$USERR5
 40
0.0
  9
$WORLDVIEW
 70
     1
  9
$SHADEDGE
 70
     3
  9
$SHADEDIF
 70
    70
  9
$TILEMODE
 70
     1
  9
$MAXACTVP
 70
    64
  9
$PINSBASE
 10
0.0
 20
0.0
 30
0.0
  9
$PLIMCHECK
 70
     0
  9
$PEXTMIN
 10
1.000000000000000E+20
 20
1.000000000000000E+20
 30
1.000000000000000E+20
  9
$PEXTMAX
 10
-1.000000000000000E+20
 20
-1.000000000000000E+20
 30
-1.000000000000000E+20
  9
$PLIMMIN
 10
0.0
 20
0.0
  9
$PLIMMAX
 10
420.0
 20
297.0
  9
$UNITMODE
 70
     0
  9
$VISRETAIN
 70
     1
  9
$PLINEGEN
 70
     0
  9
$PSLTSCALE
 70
     1
  9
$TREEDEPTH
 70
  3020
  9
$PICKSTYLE
 70
     1
  9
$CMLSTYLE
  2
STANDARD
  9
$CMLJUST
 70
     0
  9
$CMLSCALE
 40
20.0
  9
$PROXYGRAPHICS
 70
     1
  9
$MEASUREMENT
 70
     1
  0
ENDSEC
  0
SECTION
  2
CLASSES
  0
CLASS
  1
ACDBDICTIONARYWDFLT
  2
AcDbDictionaryWithDefault
  3
ObjectDBX Classes
 90
        0
280
     0
281
     0
  0
CLASS
  1
VISUALSTYLE
  2
AcDbVisualStyle
  3
ObjectDBX Classes
 90
     4095
280
     0
281
     0
  0
CLASS
  1
MATERIAL
  2
AcDbMaterial
  3
ObjectDBX Classes
 90
     1153
280
     0
281
     0
  0
CLASS
  1
SCALE
  2
AcDbScale
  3
ObjectDBX Classes
 90
     1153
280
     0
281
     0
  0
CLASS
  1
SUN
  2
AcDbSun
  3
SCENEOE
 90
     1153
280
     0
281
     0
  0
CLASS
  1
DICTIONARYVAR
  2
AcDbDictionaryVar
  3
ObjectDBX Classes
 90
        0
280
     0
281
     0
  0
CLASS
  1
XRECORD
  2
AcDbXrecord
  3
ObjectDBX Classes
 90
        0
280
     0
281
     0
  0
CLASS
  1
LWPOLYLINE
  2
AcDbPolyline
  3
ObjectDBX Classes
 90
        0
280
     0
281
     1
  0
CLASS
  1
HATCH
  2
AcDbHatch
  3
ObjectDBX Classes
 90
        0
280
     0
281
     1
  0
CLASS
  1
ACDBPLACEHOLDER
  2
AcDbPlaceHolder
  3
ObjectDBX Classes
 90
        0
280
     0
281
     0
  0
CLASS
  1
LAYOUT
  2
AcDbLayout
  3
ObjectDBX Classes
 90
        0
280
     0
281
     0
  0
ENDSEC
  0
SECTION
  2
TABLES
  0
TABLE
  2
VPORT
  5
8
330
0
100
AcDbSymbolTable
 70
     1
  0
VPORT
  5
29
330
8
100
AcDbSymbolTableRecord
100
AcDbViewportTableRecord
  2
*ACTIVE
 70
     0
 10
0.0
 20
0.0
 11
1.0
 21
1.0
 12
401.35
 22
285.75
 13
0.0
 23
0.0
 14
10.0
 24
10.0
 15
10.0
 25
10.0
 16
0.0
 26
0.0
 36
1.0
 17
0.0
 27
0.0
 37
0.0
 40
529.5
 41
1.105382436260623
 42
50.0
 43
0.0
 44
0.0
 50
0.0
 51
0.0
 71
     0
 72
  1000
 73
     1
 74
     3
 75
     0
 76
     0
 77
     0
 78
     0
  0
ENDTAB
  0
TABLE
  2
LTYPE
  5
5
330
0
100
AcDbSymbolTable
 70
    12
  0
LTYPE
  5
14
330
5
100
AcDbSymbolTableRecord
100
AcDbLinetypeTableRecord
  2
BYBLOCK
 70
     0
  3

 72
    65
 73
     0
 40
0.0
  0
LTYPE
  5
15
330
5
100
AcDbSymbolTableRecord
100
AcDbLinetypeTableRecord
  2
BYLAYER
 70
     0
  3

 72
    65
 73
     0
 40
0.0
  0
LTYPE
  5
16
330
5
100
AcDbSymbolTableRecord
100
AcDbLinetypeTableRecord
  2
CONTINUOUS
 70
     0
  3
Solid line
 72
    65
 73
     0
 40
0.0
  0
LTYPE
  5
6A
330
5
100
AcDbSymbolTableRecord
100
AcDbLinetypeTableRecord
  2
EXLTYPE1
 70
     0
  3
一点鎖線2
 72
    65
 73
     4
 40
8.0
 49
5.0
 74
     0
 49
-1.0
 74
     0
 49
1.0
 74
     0
 49
-1.0
 74
     0
  0
LTYPE
  5
6B
330
5
100
AcDbSymbolTableRecord
100
AcDbLinetypeTableRecord
  2
EXLTYPE2
 70
     0
  3
点線
 72
    65
 73
     2
 40
2.0
 49
1.0
 74
     0
 49
-1.0
 74
     0
  0
LTYPE
  5
6C
330
5
100
AcDbSymbolTableRecord
100
AcDbLinetypeTableRecord
  2
EXLTYPE3
 70
     0
  3
一点鎖線
 72
    65
 73
     4
 40
13.0
 49
10.0
 74
     0
 49
-1.0
 74
     0
 49
1.0
 74
     0
 49
-1.0
 74
     0
  0
LTYPE
  5
6D
330
5
100
AcDbSymbolTableRecord
100
AcDbLinetypeTableRecord
  2
EXLTYPE4
 70
     0
  3
二点鎖線
 72
    65
 73
     6
 40
15.0
 49
10.0
 74
     0
 49
-1.0
 74
     0
 49
1.0
 74
     0
 49
-1.0
 74
     0
 49
1.0
 74
     0
 49
-1.0
 74
     0
  0
LTYPE
  5
6E
330
5
100
AcDbSymbolTableRecord
100
AcDbLinetypeTableRecord
  2
EXLTYPE5
 70
     0
  3
破線
 72
    65
 73
     2
 40
3.0
 49
2.0
 74
     0
 49
-1.0
 74
     0
  0
LTYPE
  5
6F
330
5
100
AcDbSymbolTableRecord
100
AcDbLinetypeTableRecord
  2
EXLTYPE6
 70
     0
  3
点線2
 72
    65
 73
     2
 40
1.0
 49
0.5
 74
     0
 49
-0.5
 74
     0
  0
LTYPE
  5
70
330
5
100
AcDbSymbolTableRecord
100
AcDbLinetypeTableRecord
  2
EXLTYPE7
 70
     0
  3
二点鎖線2
 72
    65
 73
     6
 40
7.5
 49
5.0
 74
     0
 49
-0.5
 74
     0
 49
0.5
 74
     0
 49
-0.5
 74
     0
 49
0.5
 74
     0
 49
-0.5
 74
     0
  0
LTYPE
  5
71
330
5
100
AcDbSymbolTableRecord
100
AcDbLinetypeTableRecord
  2
EXLTYPE8
 70
     0
  3
三点鎖線
 72
    65
 73
     8
 40
37.0
 49
30.0
 74
     0
 49
-1.0
 74
     0
 49
1.0
 74
     0
 49
-1.0
 74
     0
 49
1.0
 74
     0
 49
-1.0
 74
     0
 49
1.0
 74
     0
 49
-1.0
 74
     0
  0
LTYPE
  5
72
330
5
100
AcDbSymbolTableRecord
100
AcDbLinetypeTableRecord
  2
EXLTYPE9
 70
     0
  3
一点鎖線3
 72
    65
 73
     4
 40
33.0
 49
30.0
 74
     0
 49
-1.0
 74
     0
 49
1.0
 74
     0
 49
-1.0
 74
     0
  0
LTYPE
  5
73
330
5
100
AcDbSymbolTableRecord
100
AcDbLinetypeTableRecord
  2
EXLTYPE10
 70
     0
  3
二点鎖線3
 72
    65
 73
     6
 40
4.5
 49
2.0
 74
     0
 49
-0.5
 74
     0
 49
0.5
 74
     0
 49
-0.5
 74
     0
 49
0.5
 74
     0
 49
-0.5
 74
     0
  0
LTYPE
  5
74
330
5
100
AcDbSymbolTableRecord
100
AcDbLinetypeTableRecord
  2
EXLTYPE11
 70
     0
  3
四点鎖線
 72
    65
 73
    10
 40
39.0
 49
30.0
 74
     0
 49
-1.0
 74
     0
 49
1.0
 74
     0
 49
-1.0
 74
     0
 49
1.0
 74
     0
 49
-1.0
 74
     0
 49
1.0
 74
     0
 49
-1.0
 74
     0
 49
1.0
 74
     0
 49
-1.0
 74
     0
  0
ENDTAB
  0
TABLE
  2
LAYER
  5
2
330
0
100
AcDbSymbolTable
 70
     2
  0
LAYER
  5
10
330
2
100
AcDbSymbolTableRecord
100
AcDbLayerTableRecord
  2
0
 70
     0
 62
     7
  6
CONTINUOUS
  0
LAYER
  5
77
330
2
100
AcDbSymbolTableRecord
100
AcDbLayerTableRecord
  2
LAY-1
 70
     0
 62
     7
  6
CONTINUOUS
  0
ENDTAB
  0
TABLE
  2
STYLE
  5
3
330
0
100
AcDbSymbolTable
 70
     4
  0
STYLE
  5
11
330
3
100
AcDbSymbolTableRecord
100
AcDbTextStyleTableRecord
  2
STANDARD
 70
     0
 40
0.0
 41
1.0
 50
0.0
 71
     0
 42
2.5
  3
monotxt
  4
extfont
  0
STYLE
  5
75
330
3
100
AcDbSymbolTableRecord
100
AcDbTextStyleTableRecord
  2
EXCADSTD
 70
     0
 40
0.0
 41
1.0
 50
0.0
 71
     0
 42
2.5
  3
monotxt
  4
extfont
  0
STYLE
  5
76
330
3
100
AcDbSymbolTableRecord
100
AcDbTextStyleTableRecord
  2
EXCADVERT
 70
     4
 40
0.0
 41
1.0
 50
0.0
 71
     0
 42
2.5
  3
monotxt
  4
extfont
  0
STYLE
  5
750
330
3
100
AcDbSymbolTableRecord
100
AcDbTextStyleTableRecord
  2
EXCADTTF1
 70
     0
 40
0.0
 41
1.0
 50
0.0
 71
     0
 42
2.5
  3
msmincho.ttc
  4

1001
ACAD
1000
MS Mincho
1071
    32785
  0
ENDTAB
  0
TABLE
  2
VIEW
  5
6
330
0
100
AcDbSymbolTable
 70
     0
  0
ENDTAB
  0
TABLE
  2
UCS
  5
7
330
0
100
AcDbSymbolTable
 70
     0
  0
ENDTAB
  0
TABLE
  2
APPID
  5
9
330
0
100
AcDbSymbolTable
 70
     1
  0
APPID
  5
12
330
9
100
AcDbSymbolTableRecord
100
AcDbRegAppTableRecord
  2
ACAD
 70
     0
  0
ENDTAB
  0
TABLE
  2
DIMSTYLE
  5
A
330
0
100
AcDbSymbolTable
 70
     1
  0
DIMSTYLE
105
27
330
A
100
AcDbSymbolTableRecord
100
AcDbDimStyleTableRecord
  2
ISO-25
 70
     0
  3

  4

  5

  6

  7

 40
1.0
 41
2.5
 42
0.625
 43
3.75
 44
1.25
 45
0.0
 46
0.0
 47
0.0
 48
0.0
140
2.5
141
2.5
142
0.0
143
0.03937007874016
144
1.0
145
0.0
146
1.0
147
0.625
 71
     0
 72
     0
 73
     0
 74
     0
 75
     0
 76
     0
 77
     1
 78
     8
170
     0
171
     3
172
     1
173
     0
174
     0
175
     0
176
     0
177
     0
178
     0
270
     2
271
     2
272
     2
273
     2
274
     3
340
11
275
     0
280
     0
281
     0
282
     0
283
     0
284
     8
285
     0
286
     0
287
     5
288
     0
  0
ENDTAB
  0
TABLE
  2
BLOCK_RECORD
  5
1
330
0
100
AcDbSymbolTable
 70
    15
  0
BLOCK_RECORD
  5
1F
330
1
100
AcDbSymbolTableRecord
100
AcDbBlockTableRecord
  2
*MODEL_SPACE
  0
BLOCK_RECORD
  5
1B
330
1
100
AcDbSymbolTableRecord
100
AcDbBlockTableRecord
  2
*PAPER_SPACE
  0
BLOCK_RECORD
  5
78
330
1
100
AcDbSymbolTableRecord
100
AcDbBlockTableRecord
  2
EX_NORM
  0
BLOCK_RECORD
  5
7B
330
1
100
AcDbSymbolTableRecord
100
AcDbBlockTableRecord
  2
EX_BNORM
  0
BLOCK_RECORD
  5
7E
330
1
100
AcDbSymbolTableRecord
100
AcDbBlockTableRecord
  2
EX_BCIR
  0
BLOCK_RECORD
  5
81
330
1
100
AcDbSymbolTableRecord
100
AcDbBlockTableRecord
  2
EX_RCIVIL
  0
BLOCK_RECORD
  5
84
330
1
100
AcDbSymbolTableRecord
100
AcDbBlockTableRecord
  2
EX_SLANT
  0
BLOCK_RECORD
  5
87
330
1
100
AcDbSymbolTableRecord
100
AcDbBlockTableRecord
  2
EX_NONE
  0
BLOCK_RECORD
  5
8A
330
1
100
AcDbSymbolTableRecord
100
AcDbBlockTableRecord
  2
EX_CIVIL
  0
BLOCK_RECORD
  5
8D
330
1
100
AcDbSymbolTableRecord
100
AcDbBlockTableRecord
  2
EX_WCIR
  0
BLOCK_RECORD
  5
90
330
1
100
AcDbSymbolTableRecord
100
AcDbBlockTableRecord
  2
EX_WCIR2
  0
BLOCK_RECORD
  5
93
330
1
100
AcDbSymbolTableRecord
100
AcDbBlockTableRecord
  2
EX_WNORM
  0
BLOCK_RECORD
  5
96
330
1
100
AcDbSymbolTableRecord
100
AcDbBlockTableRecord
  2
EX_NNORM
  0
BLOCK_RECORD
  5
99
330
1
100
AcDbSymbolTableRecord
100
AcDbBlockTableRecord
  2
EX_BBOX
  0
BLOCK_RECORD
  5
9C
330
1
100
AcDbSymbolTableRecord
100
AcDbBlockTableRecord
  2
EX_WBOX
  0
BLOCK_RECORD
  5
9F
330
1
100
AcDbSymbolTableRecord
100
AcDbBlockTableRecord
  2
EX_INTEGRAL
  0
ENDTAB
  0
ENDSEC
  0
SECTION
  2
BLOCKS
  0
BLOCK
  5
20
330
1F
100
AcDbEntity
  8
0
100
AcDbBlockBegin
  2
*MODEL_SPACE
 70
     0
 10
0.0
 20
0.0
 30
0.0
  3
*MODEL_SPACE
  1

  0
ENDBLK
  5
21
330
1F
100
AcDbEntity
  8
0
100
AcDbBlockEnd
  0
BLOCK
  5
1C
330
1B
100
AcDbEntity
 67
     1
  8
0
100
AcDbBlockBegin
  2
*PAPER_SPACE
 70
     0
 10
0.0
 20
0.0
 30
0.0
  3
*PAPER_SPACE
  1

  0
ENDBLK
  5
1D
330
1B
100
AcDbEntity
 67
     1
  8
0
100
AcDbBlockEnd
  0
BLOCK
  5
79
330
78
100
AcDbEntity
  8
0
100
AcDbBlockBegin
  2
EX_NORM
 70
     0
 10
0.0
 20
0.0
 30
0.0
  3
EX_NORM
  1
EX_NORM
  0
LINE
  5
A2
330
78
100
AcDbEntity
  8
0
  6
CONTINUOUS
 62
     0
100
AcDbLine
 10
0.0
 20
0.0
 30
0.0
 11
-1.0
 21
0.0
 31
0.0
  0
LINE
  5
A3
330
78
100
AcDbEntity
  8
0
  6
CONTINUOUS
 62
     0
100
AcDbLine
 10
0.0
 20
0.0
 30
0.0
 11
-1.0
 21
0.166666667
 31
0.0
  0
LINE
  5
A4
330
78
100
AcDbEntity
  8
0
  6
CONTINUOUS
 62
     0
100
AcDbLine
 10
0.0
 20
0.0
 30
0.0
 11
-1.0
 21
-0.166666667
 31
0.0
  0
ENDBLK
  5
7A
330
78
100
AcDbEntity
  8
0
100
AcDbBlockEnd
  0
BLOCK
  5
7C
330
7B
100
AcDbEntity
  8
0
100
AcDbBlockBegin
  2
EX_BNORM
 70
     0
 10
0.0
 20
0.0
 30
0.0
  3
EX_BNORM
  1
EX_BNORM
  0
LINE
  5
A5
330
7B
100
AcDbEntity
  8
0
  6
CONTINUOUS
 62
     0
100
AcDbLine
 10
0.0
 20
0.0
 30
0.0
 11
-1.0
 21
0.0
 31
0.0
  0
LINE
  5
A6
330
7B
100
AcDbEntity
  8
0
  6
CONTINUOUS
 62
     0
100
AcDbLine
 10
0.0
 20
0.0
 30
0.0
 11
-1.0
 21
0.166666667
 31
0.0
  0
LINE
  5
A7
330
7B
100
AcDbEntity
  8
0
  6
CONTINUOUS
 62
     0
100
AcDbLine
 10
0.0
 20
0.0
 30
0.0
 11
-1.0
 21
-0.166666667
 31
0.0
  0
LINE
  5
A8
330
7B
100
AcDbEntity
  8
0
  6
CONTINUOUS
 62
     0
100
AcDbLine
 10
0.0
 20
0.0
 30
0.0
 11
-1.0
 21
0.083333333
 31
0.0
  0
LINE
  5
A9
330
7B
100
AcDbEntity
  8
0
  6
CONTINUOUS
 62
     0
100
AcDbLine
 10
0.0
 20
0.0
 30
0.0
 11
-1.0
 21
-0.083333333
 31
0.0
  0
LINE
  5
AA
330
7B
100
AcDbEntity
  8
0
  6
CONTINUOUS
 62
     0
100
AcDbLine
 10
-1.0
 20
0.166666667
 30
0.0
 11
-1.0
 21
-0.166666667
 31
0.0
  0
ENDBLK
  5
7D
330
7B
100
AcDbEntity
  8
0
100
AcDbBlockEnd
  0
BLOCK
  5
7F
330
7E
100
AcDbEntity
  8
0
100
AcDbBlockBegin
  2
EX_BCIR
 70
     0
 10
0.0
 20
0.0
 30
0.0
  3
EX_BCIR
  1
EX_BCIR
  0
LINE
  5
AB
330
7E
100
AcDbEntity
  8
0
  6
CONTINUOUS
 62
     0
100
AcDbLine
 10
0.0
 20
0.0
 30
0.0
 11
-1.0
 21
0.0
 31
0.0
  0
CIRCLE
  5
AC
330
7E
100
AcDbEntity
  8
0
  6
CONTINUOUS
 62
     0
100
AcDbCircle
 10
0.0
 20
0.0
 30
0.0
 40
0.5
  0
CIRCLE
  5
AD
330
7E
100
AcDbEntity
  8
0
  6
CONTINUOUS
 62
     0
100
AcDbCircle
 10
0.0
 20
0.0
 30
0.0
 40
0.25
  0
ENDBLK
  5
80
330
7E
100
AcDbEntity
  8
0
100
AcDbBlockEnd
  0
BLOCK
  5
82
330
81
100
AcDbEntity
  8
0
100
AcDbBlockBegin
  2
EX_RCIVIL
 70
     0
 10
0.0
 20
0.0
 30
0.0
  3
EX_RCIVIL
  1
EX_RCIVIL
  0
LINE
  5
AE
330
81
100
AcDbEntity
  8
0
  6
CONTINUOUS
 62
     0
100
AcDbLine
 10
0.0
 20
0.0
 30
0.0
 11
-1.0
 21
0.0
 31
0.0
  0
LINE
  5
AF
330
81
100
AcDbEntity
  8
0
  6
CONTINUOUS
 62
     0
100
AcDbLine
 10
-1.0
 20
-0.25
 30
0.0
 11
0.0
 21
-0.25
 31
0.0
  0
LINE
  5
B0
330
81
100
AcDbEntity
  8
0
  6
CONTINUOUS
 62
     0
100
AcDbLine
 10
-1.0
 20
-0.125
 30
0.0
 11
0.0
 21
-0.125
 31
0.0
  0
ENDBLK
  5
83
330
81
100
AcDbEntity
  8
0
100
AcDbBlockEnd
  0
BLOCK
  5
85
330
84
100
AcDbEntity
  8
0
100
AcDbBlockBegin
  2
EX_SLANT
 70
     0
 10
0.0
 20
0.0
 30
0.0
  3
EX_SLANT
  1
EX_SLANT
  0
LINE
  5
B1
330
84
100
AcDbEntity
  8
0
  6
CONTINUOUS
 62
     0
100
AcDbLine
 10
0.0
 20
0.0
 30
0.0
 11
-1.0
 21
0.0
 31
0.0
  0
LINE
  5
B2
330
84
100
AcDbEntity
  8
0
  6
CONTINUOUS
 62
     0
100
AcDbLine
 10
0.707106781
 20
0.707106781
 30
0.0
 11
-0.707106781
 21
-0.707106781
 31
0.0
  0
ENDBLK
  5
86
330
84
100
AcDbEntity
  8
0
100
AcDbBlockEnd
  0
BLOCK
  5
88
330
87
100
AcDbEntity
  8
0
100
AcDbBlockBegin
  2
EX_NONE
 70
     0
 10
0.0
 20
0.0
 30
0.0
  3
EX_NONE
  1
EX_NONE
  0
LINE
  5
B3
330
87
100
AcDbEntity
  8
0
  6
CONTINUOUS
 62
     0
100
AcDbLine
 10
0.0
 20
0.0
 30
0.0
 11
-1.0
 21
0.0
 31
0.0
  0
ENDBLK
  5
89
330
87
100
AcDbEntity
  8
0
100
AcDbBlockEnd
  0
BLOCK
  5
8B
330
8A
100
AcDbEntity
  8
0
100
AcDbBlockBegin
  2
EX_CIVIL
 70
     0
 10
0.0
 20
0.0
 30
0.0
  3
EX_CIVIL
  1
EX_CIVIL
  0
LINE
  5
B4
330
8A
100
AcDbEntity
  8
0
  6
CONTINUOUS
 62
     0
100
AcDbLine
 10
0.0
 20
0.0
 30
0.0
 11
-1.0
 21
0.0
 31
0.0
  0
LINE
  5
B5
330
8A
100
AcDbEntity
  8
0
  6
CONTINUOUS
 62
     0
100
AcDbLine
 10
-1.0
 20
0.25
 30
0.0
 11
0.0
 21
0.25
 31
0.0
  0
LINE
  5
B6
330
8A
100
AcDbEntity
  8
0
  6
CONTINUOUS
 62
     0
100
AcDbLine
 10
-1.0
 20
0.125
 30
0.0
 11
0.0
 21
0.125
 31
0.0
  0
ENDBLK
  5
8C
330
8A
100
AcDbEntity
  8
0
100
AcDbBlockEnd
  0
BLOCK
  5
8E
330
8D
100
AcDbEntity
  8
0
100
AcDbBlockBegin
  2
EX_WCIR
 70
     0
 10
0.0
 20
0.0
 30
0.0
  3
EX_WCIR
  1
EX_WCIR
  0
LINE
  5
B7
330
8D
100
AcDbEntity
  8
0
  6
CONTINUOUS
 62
     0
100
AcDbLine
 10
0.0
 20
0.0
 30
0.0
 11
-1.0
 21
0.0
 31
0.0
  0
CIRCLE
  5
B8
330
8D
100
AcDbEntity
  8
0
  6
CONTINUOUS
 62
     0
100
AcDbCircle
 10
0.0
 20
0.0
 30
0.0
 40
0.5
  0
ENDBLK
  5
8F
330
8D
100
AcDbEntity
  8
0
100
AcDbBlockEnd
  0
BLOCK
  5
91
330
90
100
AcDbEntity
  8
0
100
AcDbBlockBegin
  2
EX_WCIR2
 70
     0
 10
0.0
 20
0.0
 30
0.0
  3
EX_WCIR2
  1
EX_WCIR2
  0
LINE
  5
B9
330
90
100
AcDbEntity
  8
0
  6
CONTINUOUS
 62
     0
100
AcDbLine
 10
-0.5
 20
0.0
 30
0.0
 11
-1.0
 21
0.0
 31
0.0
  0
CIRCLE
  5
BA
330
90
100
AcDbEntity
  8
0
  6
CONTINUOUS
 62
     0
100
AcDbCircle
 10
0.0
 20
0.0
 30
0.0
 40
0.5
  0
ENDBLK
  5
92
330
90
100
AcDbEntity
  8
0
100
AcDbBlockEnd
  0
BLOCK
  5
94
330
93
100
AcDbEntity
  8
0
100
AcDbBlockBegin
  2
EX_WNORM
 70
     0
 10
0.0
 20
0.0
 30
0.0
  3
EX_WNORM
  1
EX_WNORM
  0
LINE
  5
BB
330
93
100
AcDbEntity
  8
0
  6
CONTINUOUS
 62
     0
100
AcDbLine
 10
-1.0
 20
0.0
 30
0.0
 11
-1.0
 21
0.0
 31
0.0
  0
LINE
  5
BC
330
93
100
AcDbEntity
  8
0
  6
CONTINUOUS
 62
     0
100
AcDbLine
 10
0.0
 20
0.0
 30
0.0
 11
-1.0
 21
0.166666667
 31
0.0
  0
LINE
  5
BD
330
93
100
AcDbEntity
  8
0
  6
CONTINUOUS
 62
     0
100
AcDbLine
 10
0.0
 20
0.0
 30
0.0
 11
-1.0
 21
-0.166666667
 31
0.0
  0
LINE
  5
BE
330
93
100
AcDbEntity
  8
0
  6
CONTINUOUS
 62
     0
100
AcDbLine
 10
-1.0
 20
0.166666667
 30
0.0
 11
-1.0
 21
-0.166666667
 31
0.0
  0
ENDBLK
  5
95
330
93
100
AcDbEntity
  8
0
100
AcDbBlockEnd
  0
BLOCK
  5
97
330
96
100
AcDbEntity
  8
0
100
AcDbBlockBegin
  2
EX_NNORM
 70
     0
 10
0.0
 20
0.0
 30
0.0
  3
EX_NNORM
  1
EX_NNORM
  0
LINE
  5
BF
330
96
100
AcDbEntity
  8
0
  6
CONTINUOUS
 62
     0
100
AcDbLine
 10
0.0
 20
0.0
 30
0.0
 11
-1.0
 21
0.0
 31
0.0
  0
LINE
  5
C0
330
96
100
AcDbEntity
  8
0
  6
CONTINUOUS
 62
     0
100
AcDbLine
 10
0.0
 20
0.0
 30
0.0
 11
-1.0
 21
0.166666667
 31
0.0
  0
LINE
  5
C1
330
96
100
AcDbEntity
  8
0
  6
CONTINUOUS
 62
     0
100
AcDbLine
 10
0.0
 20
0.0
 30
0.0
 11
-1.0
 21
-0.166666667
 31
0.0
  0
LINE
  5
C2
330
96
100
AcDbEntity
  8
0
  6
CONTINUOUS
 62
     0
100
AcDbLine
 10
-1.0
 20
0.166666667
 30
0.0
 11
-1.0
 21
-0.166666667
 31
0.0
  0
ENDBLK
  5
98
330
96
100
AcDbEntity
  8
0
100
AcDbBlockEnd
  0
BLOCK
  5
9A
330
99
100
AcDbEntity
  8
0
100
AcDbBlockBegin
  2
EX_BBOX
 70
     0
 10
0.0
 20
0.0
 30
0.0
  3
EX_BBOX
  1
EX_BBOX
  0
LINE
  5
C3
330
99
100
AcDbEntity
  8
0
  6
CONTINUOUS
 62
     0
100
AcDbLine
 10
0.0
 20
0.0
 30
0.0
 11
-1.0
 21
0.0
 31
0.0
  0
LINE
  5
C4
330
99
100
AcDbEntity
  8
0
  6
CONTINUOUS
 62
     0
100
AcDbLine
 10
-0.5
 20
0.5
 30
0.0
 11
0.5
 21
0.5
 31
0.0
  0
LINE
  5
C5
330
99
100
AcDbEntity
  8
0
  6
CONTINUOUS
 62
     0
100
AcDbLine
 10
0.5
 20
0.5
 30
0.0
 11
0.5
 21
-0.5
 31
0.0
  0
LINE
  5
C6
330
99
100
AcDbEntity
  8
0
  6
CONTINUOUS
 62
     0
100
AcDbLine
 10
0.5
 20
-0.5
 30
0.0
 11
-0.5
 21
-0.5
 31
0.0
  0
LINE
  5
C7
330
99
100
AcDbEntity
  8
0
  6
CONTINUOUS
 62
     0
100
AcDbLine
 10
-0.5
 20
-0.5
 30
0.0
 11
-0.5
 21
0.5
 31
0.0
  0
LINE
  5
C8
330
99
100
AcDbEntity
  8
0
  6
CONTINUOUS
 62
     0
100
AcDbLine
 10
-0.25
 20
0.25
 30
0.0
 11
0.25
 21
0.25
 31
0.0
  0
LINE
  5
C9
330
99
100
AcDbEntity
  8
0
  6
CONTINUOUS
 62
     0
100
AcDbLine
 10
0.25
 20
0.25
 30
0.0
 11
0.25
 21
-0.25
 31
0.0
  0
LINE
  5
CA
330
99
100
AcDbEntity
  8
0
  6
CONTINUOUS
 62
     0
100
AcDbLine
 10
0.25
 20
-0.25
 30
0.0
 11
-0.25
 21
-0.25
 31
0.0
  0
LINE
  5
CB
330
99
100
AcDbEntity
  8
0
  6
CONTINUOUS
 62
     0
100
AcDbLine
 10
-0.25
 20
-0.25
 30
0.0
 11
-0.25
 21
0.25
 31
0.0
  0
ENDBLK
  5
9B
330
99
100
AcDbEntity
  8
0
100
AcDbBlockEnd
  0
BLOCK
  5
9D
330
9C
100
AcDbEntity
  8
0
100
AcDbBlockBegin
  2
EX_WBOX
 70
     0
 10
0.0
 20
0.0
 30
0.0
  3
EX_WBOX
  1
EX_WBOX
  0
LINE
  5
CC
330
9C
100
AcDbEntity
  8
0
  6
CONTINUOUS
 62
     0
100
AcDbLine
 10
-0.5
 20
0.0
 30
0.0
 11
-1.0
 21
0.0
 31
0.0
  0
LINE
  5
CD
330
9C
100
AcDbEntity
  8
0
  6
CONTINUOUS
 62
     0
100
AcDbLine
 10
-0.5
 20
0.5
 30
0.0
 11
0.5
 21
0.5
 31
0.0
  0
LINE
  5
CE
330
9C
100
AcDbEntity
  8
0
  6
CONTINUOUS
 62
     0
100
AcDbLine
 10
0.5
 20
0.5
 30
0.0
 11
0.5
 21
-0.5
 31
0.0
  0
LINE
  5
CF
330
9C
100
AcDbEntity
  8
0
  6
CONTINUOUS
 62
     0
100
AcDbLine
 10
0.5
 20
-0.5
 30
0.0
 11
-0.5
 21
-0.5
 31
0.0
  0
LINE
  5
D0
330
9C
100
AcDbEntity
  8
0
  6
CONTINUOUS
 62
     0
100
AcDbLine
 10
-0.5
 20
-0.5
 30
0.0
 11
-0.5
 21
0.5
 31
0.0
  0
ENDBLK
  5
9E
330
9C
100
AcDbEntity
  8
0
100
AcDbBlockEnd
  0
BLOCK
  5
A0
330
9F
100
AcDbEntity
  8
0
100
AcDbBlockBegin
  2
EX_INTEGRAL
 70
     0
 10
0.0
 20
0.0
 30
0.0
  3
EX_INTEGRAL
  1
EX_INTEGRAL
  0
LINE
  5
D1
330
9F
100
AcDbEntity
  8
0
  6
CONTINUOUS
 62
     0
100
AcDbLine
 10
0.0
 20
0.0
 30
0.0
 11
-1.0
 21
0.0
 31
0.0
  0
ARC
  5
D2
330
9F
100
AcDbEntity
  8
0
  6
CONTINUOUS
 62
     0
100
AcDbCircle
 10
0.542115
 20
0.164992
 30
0.0
 40
0.56667
100
AcDbArc
 50
73.07249033629006
 51
196.9275130221199
  0
ARC
  5
D3
330
9F
100
AcDbEntity
  8
0
  6
CONTINUOUS
 62
     0
100
AcDbCircle
 10
-0.542115
 20
-0.164992
 30
0.0
 40
0.56667
100
AcDbArc
 50
253.0724869220464
 51
16.9275130559125
  0
ENDBLK
  5
A1
330
9F
100
AcDbEntity
  8
0
100
AcDbBlockEnd
  0
ENDSEC
  0
SECTION
  2
ENTITIES
  0
LINE
  5
D4
330
1F
100
AcDbEntity
  8
LAY-1
  6
CONTINUOUS
 62
     3
100
AcDbLine
 10
232.4191877584484
 20
43.41361366732724
 30
0.0
 11
222.7773736131503
 21
54.90428031411184
 31
0.0
  0
ARC
  5
D5
330
1F
100
AcDbEntity
  8
LAY-1
  6
CONTINUOUS
 62
     3
100
AcDbCircle
 10
224.3094624993882
 20
56.18985553348492
 30
0.0
 40
2.0
100
AcDbArc
 50
129.9999999999999
 51
220.0000000000001
  0
LINE
  5
D6
330
1F
100
AcDbEntity
  8
LAY-1
  6
CONTINUOUS
 62
     3
100
AcDbLine
 10
354.9862986574846
 20
146.2596312171736
 30
0.0
 11
345.3444845121865
 21
157.7502978639583
 31
0.0
  0
ARC
  5
D7
330
1F
100
AcDbEntity
  8
LAY-1
  6
CONTINUOUS
 62
     3
100
AcDbCircle
 10
343.8123956259484
 20
156.4647226445852
 30
0.0
 40
2.0
100
AcDbArc
 50
40.0000000000003
 51
130.0000000000006
  0
ARC
  5
D8
330
1F
100
AcDbEntity
  8
LAY-1
  6
CONTINUOUS
 62
     3
100
AcDbCircle
 10
236.2321586471901
 20
72.72122192040575
 30
0.0
 40
3.0
100
AcDbArc
 50
310.0000000000002
 51
55.25752329045508
  0
ARC
  5
D9
330
1F
100
AcDbEntity
  8
LAY-1
  6
CONTINUOUS
 62
     3
100
AcDbCircle
 10
327.2729106769551
 20
170.0000000000001
 30
0.0
 40
6.0
100
AcDbArc
 50
90.00000000000001
 51
130.0000000000007
  0
ARC
  5
DA
330
1F
100
AcDbEntity
  8
LAY-1
  6
CONTINUOUS
 62
     3
100
AcDbCircle
 10
325.4618233812809
 20
147.5938006888536
 30
0.0
 40
3.0
100
AcDbArc
 50
204.7424767095443
 51
310.0000000000008
  0
LINE
  5
DB
330
1F
100
AcDbEntity
  8
LAY-1
  6
CONTINUOUS
 62
     3
100
AcDbLine
 10
316.4901702084788
 20
168.7846501858148
 30
0.0
 11
323.4161850188358
 21
174.5962666587139
 31
0.0
  0
ARC
  5
DC
330
1F
100
AcDbEntity
  8
LAY-1
  6
CONTINUOUS
 62
     3
100
AcDbCircle
 10
320.3468958665982
 20
164.188383527101
 30
0.0
 40
6.0
100
AcDbArc
 50
130.0000000000005
 51
209.3993638438893
  0
LINE
  5
DD
330
1F
100
AcDbEntity
  8
LAY-1
  6
CONTINUOUS
 62
     3
100
AcDbLine
 10
354.986298657479
 20
146.2596312171712
 30
0.0
 11
232.4191877584474
 21
43.41361366732841
 31
0.0
  0
LINE
  5
DE
330
1F
100
AcDbEntity
  8
LAY-1
  6
CONTINUOUS
 62
     3
100
AcDbLine
 10
119.0000000000002
 20
285.0000000000001
 30
0.0
 11
117.0000000000002
 21
285.0000000000001
 31
0.0
  0
LINE
  5
DF
330
1F
100
AcDbEntity
  8
LAY-1
  6
CONTINUOUS
 62
     3
100
AcDbLine
 10
117.0000000000002
 20
222.0
 30
0.0
 11
117.0000000000002
 21
285.0
 31
0.0
  0
LINE
  5
E0
330
1F
100
AcDbEntity
  8
LAY-1
  6
CONTINUOUS
 62
     3
100
AcDbLine
 10
119.0000000000002
 20
159.0
 30
0.0
 11
117.0000000000002
 21
159.0
 31
0.0
  0
LINE
  5
E1
330
1F
100
AcDbEntity
  8
LAY-1
  6
CONTINUOUS
 62
     3
100
AcDbLine
 10
117.0000000000002
 20
222.0000000000001
 30
0.0
 11
117.0000000000002
 21
159.0
 31
0.0
  0
LINE
  5
E2
330
1F
100
AcDbEntity
  8
LAY-1
  6
CONTINUOUS
 62
     3
100
AcDbLine
 10
133.0000000000003
 20
129.5
 30
0.0
 11
119.0000000000002
 21
129.5
 31
0.0
  0
ARC
  5
E3
330
1F
100
AcDbEntity
  8
LAY-1
  6
CONTINUOUS
 62
     3
100
AcDbCircle
 10
133.0000000000003
 20
131.5
 30
0.0
 40
2.0
100
AcDbArc
 50
270.0
 51
0.0
  0
LINE
  5
E4
330
1F
100
AcDbEntity
  8
LAY-1
  6
CONTINUOUS
 62
     3
100
AcDbLine
 10
133.0000000000003
 20
314.5
 30
0.0
 11
119.0000000000002
 21
314.5
 31
0.0
  0
LINE
  5
E5
330
1F
100
AcDbEntity
  8
LAY-1
  6
CONTINUOUS
 62
     3
100
AcDbLine
 10
155.0
 20
267.9999999999998
 30
0.0
 11
141.8171793746731
 21
271.2957051563316
 31
0.0
  0
ARC
  5
E6
330
1F
100
AcDbEntity
  8
LAY-1
  6
CONTINUOUS
 62
     3
100
AcDbCircle
 10
144.0000000000001
 20
280.0269876576396
 30
0.0
 40
9.0
100
AcDbArc
 50
180.0
 51
255.9637565320739
  0
ARC
  5
E7
330
1F
100
AcDbEntity
  8
LAY-1
  6
CONTINUOUS
 62
     3
100
AcDbCircle
 10
133.0000000000001
 20
312.4999999999998
 30
0.0
 40
2.0
100
AcDbArc
 50
0.0
 51
90.00000000000001
  0
ARC
  5
E8
330
1F
100
AcDbEntity
  8
LAY-1
  6
CONTINUOUS
 62
     3
100
AcDbCircle
 10
144.0000000000001
 20
163.9730123423604
 30
0.0
 40
9.0
100
AcDbArc
 50
104.0362434679261
 51
180.0
  0
LINE
  5
E9
330
1F
100
AcDbEntity
  8
LAY-1
  6
CONTINUOUS
 62
     3
100
AcDbLine
 10
149.3170564563677
 20
174.5792641140921
 30
0.0
 11
141.8171793746731
 21
172.7042948436684
 31
0.0
  0
ARC
  5
EA
330
1F
100
AcDbEntity
  8
LAY-1
  6
CONTINUOUS
 62
     3
100
AcDbCircle
 10
355.3389325513261
 20
244.4610728873523
 30
0.0
 40
206.0
100
AcDbArc
 50
202.1283945705906
 51
235.2575232904553
  0
ARC
  5
EB
330
1F
100
AcDbEntity
  8
LAY-1
  6
CONTINUOUS
 62
     3
100
AcDbCircle
 10
152.4700195818401
 20
161.9674116122029
 30
0.0
 40
13.0
100
AcDbArc
 50
22.12839457059067
 51
104.0362434679269
  0
LINE
  5
EC
330
1F
100
AcDbEntity
  8
LAY-1
  6
CONTINUOUS
 62
     3
100
AcDbLine
 10
405.0000000000001
 20
285.0
 30
0.0
 11
407.0000000000001
 21
285.0
 31
0.0
  0
LINE
  5
ED
330
1F
100
AcDbEntity
  8
LAY-1
  6
CONTINUOUS
 62
     3
100
AcDbLine
 10
407.0000000000001
 20
222.0
 30
0.0
 11
407.0000000000001
 21
285.0
 31
0.0
  0
LINE
  5
EE
330
1F
100
AcDbEntity
  8
LAY-1
  6
CONTINUOUS
 62
     3
100
AcDbLine
 10
405.0000000000003
 20
159.0000000000002
 30
0.0
 11
407.0000000000003
 21
159.0000000000002
 31
0.0
  0
LINE
  5
EF
330
1F
100
AcDbEntity
  8
LAY-1
  6
CONTINUOUS
 62
     3
100
AcDbLine
 10
407.0000000000001
 20
222.0000000000002
 30
0.0
 11
407.0000000000003
 21
159.0000000000003
 31
0.0
  0
LINE
  5
F0
330
1F
100
AcDbEntity
  8
LAY-1
  6
CONTINUOUS
 62
     3
100
AcDbLine
 10
390.9999999999999
 20
314.5
 30
0.0
 11
405.0000000000003
 21
314.5
 31
0.0
  0
ARC
  5
F1
330
1F
100
AcDbEntity
  8
LAY-1
  6
CONTINUOUS
 62
     3
100
AcDbCircle
 10
390.9999999999999
 20
312.5
 30
0.0
 40
2.0
100
AcDbArc
 50
90.00000000000001
 51
180.0
  0
ARC
  5
F2
330
1F
100
AcDbEntity
  8
LAY-1
  6
CONTINUOUS
 62
     3
100
AcDbCircle
 10
403.0000000000003
 20
131.5000000000003
 30
0.0
 40
2.0
100
AcDbArc
 50
270.0
 51
0.0
  0
LINE
  5
F3
330
1F
100
AcDbEntity
  8
LAY-1
  6
CONTINUOUS
 62
     3
100
AcDbLine
 10
369.0
 20
268.0
 30
0.0
 11
382.1828206253268
 21
271.2957051563317
 31
0.0
  0
ARC
  5
F4
330
1F
100
AcDbEntity
  8
LAY-1
  6
CONTINUOUS
 62
     3
100
AcDbCircle
 10
379.9999999999999
 20
280.0269876576397
 30
0.0
 40
9.0
100
AcDbArc
 50
284.0362434679265
 51
0.0
  0
LINE
  5
F5
330
1F
100
AcDbEntity
  8
LAY-1
  6
CONTINUOUS
 62
     3
100
AcDbLine
 10
369.0
 20
176.0000000000001
 30
0.0
 11
382.1828206253268
 21
172.7042948436684
 31
0.0
  0
ARC
  5
F6
330
1F
100
AcDbEntity
  8
LAY-1
  6
CONTINUOUS
 62
     3
100
AcDbCircle
 10
379.9999999999999
 20
163.9730123423604
 30
0.0
 40
9.0
100
AcDbArc
 50
0.0
 51
75.96375653207389
  0
ARC
  5
F7
330
1F
100
AcDbEntity
  8
LAY-1
  6
CONTINUOUS
 62
     3
100
AcDbCircle
 10
390.9999999999999
 20
131.5000000000002
 30
0.0
 40
2.0
100
AcDbArc
 50
180.0
 51
270.0
  0
LINE
  5
F8
330
1F
100
AcDbEntity
  8
LAY-1
  6
CONTINUOUS
 62
     3
100
AcDbLine
 10
391.0
 20
129.5000000000003
 30
0.0
 11
403.0000000000003
 21
129.5000000000003
 31
0.0
  0
LINE
  5
F9
330
1F
100
AcDbEntity
  8
LAY-1
  6
CONTINUOUS
 62
     3
100
AcDbLine
 10
369.0
 20
176.0000000000001
 30
0.0
 11
327.2729106769551
 21
176.0000000000001
 31
0.0
  0
LINE
  5
FA
330
1F
100
AcDbEntity
  8
LAY-1
  6
CONTINUOUS
 62
     3
100
AcDbLine
 10
165.85
 20
268.0
 30
0.0
 11
169.0000000000006
 21
268.0
 31
0.0
  0
LINE
  5
FB
330
1F
100
AcDbEntity
  8
LAY-1
  6
CONTINUOUS
 62
     3
100
AcDbLine
 10
294.40938561825
 20
268.0
 30
0.0
 11
369.0
 21
268.0
 31
0.0
  0
ARC
  5
FC
330
1F
100
AcDbEntity
  8
LAY-1
  6
CONTINUOUS
 62
     3
100
AcDbCircle
 10
235.8889598114571
 20
282.5619450761868
 30
0.0
 40
35.0
100
AcDbArc
 50
234.6738113831241
 51
308.5031543578312
  0
ARC
  5
FD
330
1F
100
AcDbEntity
  8
LAY-1
  6
CONTINUOUS
 62
     3
100
AcDbCircle
 10
294.4093856182477
 20
209.0
 30
0.0
 40
58.99999999999999
100
AcDbArc
 50
90.00000000000001
 51
128.5031543578312
  0
ARC
  5
FE
330
1F
100
AcDbEntity
  8
LAY-1
  6
CONTINUOUS
 62
     3
100
AcDbCircle
 10
171.7053629660192
 20
191.9999999999999
 30
0.0
 40
76.0
100
AcDbArc
 50
54.67381138312407
 51
90.00000000000001
  0
LINE
  5
FF
330
1F
100
AcDbEntity
  8
LAY-1
  6
CONTINUOUS
 62
     3
100
AcDbLine
 10
171.70536296602
 20
267.9999999999999
 30
0.0
 11
154.9999999999999
 21
267.9999999999999
 31
0.0
  0
LINE
  5
100
330
1F
100
AcDbEntity
  8
LAY-1
  6
CONTINUOUS
 62
     3
100
AcDbLine
 10
278.9325187539596
 20
51.76586125118149
 30
0.0
 11
308.0422075924809
 21
76.19179041927012
 31
0.0
  0
LINE
  5
101
330
1F
100
AcDbEntity
  8
LAY-1
  6
CONTINUOUS
 62
     3
100
AcDbLine
 10
278.289731144273
 20
52.53190569430046
 30
0.0
 11
278.9325187539596
 21
51.76586125118149
 31
0.0
  0
ARC
  5
102
330
1F
100
AcDbEntity
  8
LAY-1
  6
CONTINUOUS
 62
     3
100
AcDbCircle
 10
276.757642258035
 20
51.24633047492739
 30
0.0
 40
2.00000000000001
100
AcDbArc
 50
40.00000000000001
 51
130.0000000000001
  0
LINE
  5
103
330
1F
100
AcDbEntity
  8
LAY-1
  6
CONTINUOUS
 62
     3
100
AcDbLine
 10
307.3994199827944
 20
76.95783486238912
 30
0.0
 11
308.0422075924809
 21
76.19179041927012
 31
0.0
  0
ARC
  5
104
330
1F
100
AcDbEntity
  8
LAY-1
  6
CONTINUOUS
 62
     3
100
AcDbCircle
 10
308.9315088690323
 20
78.24341008176219
 30
0.0
 40
2.00000000000001
100
AcDbArc
 50
130.0000000000001
 51
220.0
  0
LINE
  5
105
330
1F
100
AcDbEntity
  8
LAY-1
  6
CONTINUOUS
 62
     3
100
AcDbLine
 10
244.9535461473349
 20
28.47574702650903
 30
0.0
 11
234.0261567826637
 21
41.49850255953169
 31
0.0
  0
ARC
  5
106
330
1F
100
AcDbEntity
  8
LAY-1
  6
CONTINUOUS
 62
     3
100
AcDbCircle
 10
245.7195905904539
 20
29.11853463619556
 30
0.0
 40
1.000000000000005
100
AcDbArc
 50
220.0
 51
310.0
  0
LINE
  5
107
330
1F
100
AcDbEntity
  8
LAY-1
  6
CONTINUOUS
 62
     3
100
AcDbLine
 10
367.5206570463722
 20
131.321764576356
 30
0.0
 11
356.593267681701
 21
144.3445201093786
 31
0.0
  0
ARC
  5
108
330
1F
100
AcDbEntity
  8
LAY-1
  6
CONTINUOUS
 62
     3
100
AcDbCircle
 10
366.7546126032532
 20
130.6789769666694
 30
0.0
 40
1.000000000000005
100
AcDbArc
 50
310.0
 51
40.00000000000001
  0
LINE
  5
109
330
1F
100
AcDbEntity
  8
LAY-1
  6
CONTINUOUS
 62
     3
100
AcDbLine
 10
302.9805568615475
 20
64.56900997306963
 30
0.0
 11
303.08286734847
 21
65.73842418971384
 31
0.0
  0
LINE
  5
10A
330
1F
100
AcDbEntity
  8
LAY-1
  6
CONTINUOUS
 62
     3
100
AcDbLine
 10
296.5855613030861
 20
60.28653708339331
 30
0.0
 11
303.0828673484664
 21
65.73842418971779
 31
0.0
  0
LINE
  5
10B
330
1F
100
AcDbEntity
  8
LAY-1
  6
CONTINUOUS
 62
     3
100
AcDbLine
 10
302.9805568615477
 20
64.56900997307162
 30
0.0
 11
297.1191131679495
 21
59.65067473160701
 31
0.0
  0
LINE
  5
10C
330
1F
100
AcDbEntity
  8
LAY-1
  6
CONTINUOUS
 62
     3
100
AcDbLine
 10
302.9805568615441
 20
64.56900997306991
 30
0.0
 11
308.765645348724
 21
57.6746099849978
 31
0.0
  0
LINE
  5
10D
330
1F
100
AcDbEntity
  8
LAY-1
  6
CONTINUOUS
 62
     3
100
AcDbLine
 10
302.9042016551288
 20
52.75627474353567
 30
0.0
 11
308.765645348724
 21
57.6746099849978
 31
0.0
  0
LINE
  5
10E
330
1F
100
AcDbEntity
  8
LAY-1
  6
CONTINUOUS
 62
     3
100
AcDbLine
 10
302.9412118243218
 20
64.53599556684668
 30
0.0
 11
308.7263003115011
 21
57.64159557877537
 31
0.0
  0
LINE
  5
10F
330
1F
100
AcDbEntity
  8
LAY-1
  6
CONTINUOUS
 62
     3
100
AcDbLine
 10
297.7971171566378
 20
60.21958762845202
 30
0.0
 11
303.5822056438171
 21
53.3251876403807
 31
0.0
  0
LINE
  5
110
330
1F
100
AcDbEntity
  8
LAY-1
  6
CONTINUOUS
 62
     1
100
AcDbLine
 10
297.7971171566371
 20
60.21958762845281
 30
0.0
 11
308.7263003115
 21
57.64159557877667
 31
0.0
  0
LINE
  5
111
330
1F
100
AcDbEntity
  8
LAY-1
  6
CONTINUOUS
 62
     1
100
AcDbLine
 10
302.9412118243212
 20
64.53599556684748
 30
0.0
 11
303.582205643816
 21
53.32518764038201
 31
0.0
  0
LINE
  5
112
330
1F
100
AcDbEntity
  8
LAY-1
  6
CONTINUOUS
 62
     3
100
AcDbLine
 10
291.2576694743533
 20
54.73233949014227
 30
0.0
 11
290.0882552577091
 21
54.8346499770646
 31
0.0
  0
LINE
  5
113
330
1F
100
AcDbEntity
  8
LAY-1
  6
CONTINUOUS
 62
     3
100
AcDbLine
 10
296.5855613030861
 20
60.28653708339331
 30
0.0
 11
290.0882552577059
 21
54.83464997706884
 31
0.0
  0
LINE
  5
114
330
1F
100
AcDbEntity
  8
LAY-1
  6
CONTINUOUS
 62
     3
100
AcDbLine
 10
291.2576694743514
 20
54.73233949014235
 30
0.0
 11
297.1191131679495
 21
59.65067473160701
 31
0.0
  0
LINE
  5
115
330
1F
100
AcDbEntity
  8
LAY-1
  6
CONTINUOUS
 62
     3
100
AcDbLine
 10
291.2576694743536
 20
54.73233949014562
 30
0.0
 11
297.0427579615335
 21
47.83793950207345
 31
0.0
  0
LINE
  5
116
330
1F
100
AcDbEntity
  8
LAY-1
  6
CONTINUOUS
 62
     3
100
AcDbLine
 10
302.9042016551288
 20
52.75627474353567
 30
0.0
 11
297.0427579615335
 21
47.83793950207345
 31
0.0
  0
LINE
  5
117
330
1F
100
AcDbEntity
  8
LAY-1
  6
CONTINUOUS
 62
     3
100
AcDbLine
 10
291.2970145115772
 20
54.76535389636729
 30
0.0
 11
297.0821029987566
 21
47.87095390829597
 31
0.0
  0
LINE
  5
118
330
1F
100
AcDbEntity
  8
LAY-1
  6
CONTINUOUS
 62
     3
100
AcDbLine
 10
296.4411091792613
 20
59.08176183476195
 30
0.0
 11
302.2261976664406
 21
52.18736184669064
 31
0.0
  0
LINE
  5
119
330
1F
100
AcDbEntity
  8
LAY-1
  6
CONTINUOUS
 62
     1
100
AcDbLine
 10
296.4411091792606
 20
59.08176183476274
 30
0.0
 11
297.0821029987554
 21
47.87095390829728
 31
0.0
  0
LINE
  5
11A
330
1F
100
AcDbEntity
  8
LAY-1
  6
CONTINUOUS
 62
     1
100
AcDbLine
 10
291.2970145115766
 20
54.76535389636808
 30
0.0
 11
302.2261976664395
 21
52.18736184669194
 31
0.0
  0
LINE
  5
11B
330
1F
100
AcDbEntity
  8
LAY-1
  6
CONTINUOUS
 62
     3
100
AcDbLine
 10
303.0828673484699
 20
65.73842418971384
 30
0.0
 11
299.8692794288452
 21
69.33388941152504
 31
0.0
  0
LINE
  5
11C
330
1F
100
AcDbEntity
  8
LAY-1
  6
CONTINUOUS
 62
     1
100
AcDbLine
 10
302.9805568615477
 20
64.56900997307162
 30
0.0
 11
299.2135453855408
 21
68.7836632176379
 31
0.0
  0
LINE
  5
11D
330
1F
100
AcDbEntity
  8
LAY-1
  6
CONTINUOUS
 62
     1
100
AcDbLine
 10
291.2576694743514
 20
54.73233949014235
 30
0.0
 11
287.7611809609034
 21
59.1739884528169
 31
0.0
  0
LINE
  5
11E
330
1F
100
AcDbEntity
  8
LAY-1
  6
CONTINUOUS
 62
     3
100
AcDbLine
 10
290.0882552577091
 20
54.8346499770646
 30
0.0
 11
287.105446917599
 21
58.62376225892973
 31
0.0
  0
LINE
  5
11F
330
1F
100
AcDbEntity
  8
LAY-1
  6
CONTINUOUS
 62
     3
100
AcDbLine
 10
246.3623782001404
 20
28.35249019307651
 30
0.0
 11
367.3974002129397
 21
129.9129325235504
 31
0.0
  0
LINE
  5
120
330
1F
100
AcDbEntity
  8
LAY-1
  6
CONTINUOUS
 62
     3
100
AcDbLine
 10
356.593267681701
 20
144.3445201093786
 30
0.0
 11
234.0261567826637
 21
41.49850255953169
 31
0.0
  0
LINE
  5
121
330
1F
100
AcDbEntity
  8
LAY-1
  6
CONTINUOUS
 62
     3
100
AcDbLine
 10
253.4854099442199
 20
61.09027293370895
 30
0.0
 11
255.0923789684358
 21
59.175161825912
 31
0.0
  0
LINE
  5
122
330
1F
100
AcDbEntity
  8
LAY-1
  6
CONTINUOUS
 62
     3
100
AcDbLine
 10
333.9200764717127
 20
128.5829719507961
 30
0.0
 11
335.527045495929
 21
126.6678608429987
 31
0.0
  0
LINE
  5
123
330
1F
100
AcDbEntity
  8
LAY-1
  6
CONTINUOUS
 62
     3
100
AcDbLine
 10
342.5268204065753
 20
157.9968115308231
 30
0.0
 11
282.7753538432949
 21
107.8593779752729
 31
0.0
  0
LINE
  5
124
330
1F
100
AcDbEntity
  8
LAY-1
  6
CONTINUOUS
 62
     3
100
AcDbLine
 10
282.7753538432951
 20
107.8593779752726
 30
0.0
 11
223.0238872800152
 21
57.72194441972286
 31
0.0
  0
LINE
  5
125
330
1F
100
AcDbEntity
  8
LAY-1
  6
CONTINUOUS
 62
     3
100
AcDbLine
 10
405.0000000000001
 20
222.0000000000001
 30
0.0
 11
405.0000000000001
 21
314.4999999999999
 31
0.0
  0
LINE
  5
126
330
1F
100
AcDbEntity
  8
LAY-1
  6
CONTINUOUS
 62
     3
100
AcDbLine
 10
405.0000000000003
 20
222.0000000000001
 30
0.0
 11
405.0000000000003
 21
131.5000000000003
 31
0.0
  0
LINE
  5
127
330
1F
100
AcDbEntity
  8
LAY-1
  6
CONTINUOUS
 62
     3
100
AcDbLine
 10
388.9999999999999
 20
222.0000000000001
 30
0.0
 11
389.0000000000003
 21
131.5000000000002
 31
0.0
  0
LINE
  5
128
330
1F
100
AcDbEntity
  8
LAY-1
  6
CONTINUOUS
 62
     3
100
AcDbLine
 10
388.9999999999999
 20
222.0000000000001
 30
0.0
 11
389.0000000000003
 21
312.5
 31
0.0
  0
LINE
  5
129
330
1F
100
AcDbEntity
  8
LAY-1
  6
CONTINUOUS
 62
     3
100
AcDbLine
 10
135.0000000000001
 20
222.0
 30
0.0
 11
134.9999999999996
 21
312.4999999999998
 31
0.0
  0
LINE
  5
12A
330
1F
100
AcDbEntity
  8
LAY-1
  6
CONTINUOUS
 62
     3
100
AcDbLine
 10
135.0000000000003
 20
222.0
 30
0.0
 11
135.0000000000003
 21
131.5
 31
0.0
  0
LINE
  5
12B
330
1F
100
AcDbEntity
  8
LAY-1
  6
CONTINUOUS
 62
     3
100
AcDbLine
 10
119.0000000000002
 20
222.0
 30
0.0
 11
119.0000000000002
 21
129.5000000000001
 31
0.0
  0
LINE
  5
12C
330
1F
100
AcDbEntity
  8
LAY-1
  6
CONTINUOUS
 62
     3
100
AcDbLine
 10
119.0000000000002
 20
222.0
 30
0.0
 11
119.0000000000002
 21
314.5
 31
0.0
  0
LINE
  5
12D
330
1F
100
AcDbEntity
  8
LAY-1
  6
EXLTYPE3
 62
     1
100
AcDbLine
 10
108.7
 20
222.0
 30
0.0
 11
415.75
 21
222.0000000000001
 31
0.0
  0
LINE
  5
12E
330
1F
100
AcDbEntity
  8
LAY-1
  6
EXLTYPE1
 62
     1
100
AcDbLine
 10
409.75
 20
147.0000000000001
 30
0.0
 11
383.5000000000001
 21
147.0000000000001
 31
0.0
  0
LINE
  5
12F
330
1F
100
AcDbEntity
  8
LAY-1
  6
EXLTYPE1
 62
     1
100
AcDbLine
 10
409.75
 20
297.0000000000001
 30
0.0
 11
383.5000000000001
 21
297.0000000000001
 31
0.0
  0
LINE
  5
130
330
1F
100
AcDbEntity
  8
LAY-1
  6
EXLTYPE1
 62
     1
100
AcDbLine
 10
113.8000000000002
 20
297.0000000000004
 30
0.0
 11
140.0500000000003
 21
297.0000000000003
 31
0.0
  0
LINE
  5
131
330
1F
100
AcDbEntity
  8
LAY-1
  6
EXLTYPE1
 62
     1
100
AcDbLine
 10
113.8
 20
147.0000000000008
 30
0.0
 11
140.05
 21
147.0000000000007
 31
0.0
  0
LINE
  5
132
330
1F
100
AcDbEntity
  8
LAY-1
  6
CONTINUOUS
 62
     3
100
AcDbLine
 10
263.7579825755499
 20
42.94913540859099
 30
0.0
 11
277.9108134698222
 21
54.82477059208918
 31
0.0
  0
LINE
  5
133
330
1F
100
AcDbEntity
  8
LAY-1
  6
CONTINUOUS
 62
     3
100
AcDbLine
 10
306.8798892065399
 20
79.13271135831002
 30
0.0
 11
319.1366002964562
 21
89.41731311330517
 31
0.0
  0
LINE
  5
134
330
1F
100
AcDbEntity
  8
LAY-1
  6
CONTINUOUS
 62
     3
100
AcDbLine
 10
306.8798892065399
 20
79.13271135831002
 30
0.0
 11
294.6231781166273
 21
68.84810960331782
 31
0.0
  0
LINE
  5
135
330
1F
100
AcDbEntity
  8
LAY-1
  6
CONTINUOUS
 62
     3
100
AcDbLine
 10
312.6649776937189
 20
72.23831137024119
 30
0.0
 11
304.2384888194101
 21
65.16764766368925
 31
0.0
  0
LINE
  5
136
330
1F
100
AcDbEntity
  8
LAY-1
  6
CONTINUOUS
 62
     3
100
AcDbLine
 10
312.6649776937189
 20
72.23831137024119
 30
0.0
 11
321.0914665680276
 21
79.30897507679313
 31
0.0
  0
LINE
  5
137
330
1F
100
AcDbEntity
  8
LAY-1
  6
CONTINUOUS
 62
     3
100
AcDbLine
 10
321.0914665680276
 20
79.30897507679313
 30
0.0
 11
315.3063780808488
 21
86.20337506486383
 31
0.0
  0
LINE
  5
138
330
1F
100
AcDbEntity
  8
LAY-1
  6
CONTINUOUS
 62
     3
100
AcDbLine
 10
298.4534003322313
 20
72.06204765175997
 30
0.0
 11
315.3063780808488
 21
86.20337506486383
 31
0.0
  0
ARC
  5
139
330
1F
100
AcDbEntity
  8
LAY-1
  6
CONTINUOUS
 62
     3
100
AcDbCircle
 10
298.2404415780375
 20
80.87232305987712
 30
0.0
 40
15.88594976730587
100
AcDbArc
 50
289.7438419995312
 51
330.256158000469
  0
ARC
  5
13A
330
1F
100
AcDbEntity
  8
LAY-1
  6
CONTINUOUS
 62
     3
100
AcDbCircle
 10
306.6669304523463
 20
87.94298676642904
 30
0.0
 40
15.88594976730587
100
AcDbArc
 50
289.7438419995312
 51
330.256158000469
  0
LINE
  5
13B
330
1F
100
AcDbEntity
  8
LAY-1
  6
CONTINUOUS
 62
     3
100
AcDbLine
 10
304.2384888194101
 20
65.16764766368925
 30
0.0
 11
300.3817631612902
 21
69.7639143224039
 31
0.0
  0
LINE
  5
13C
330
1F
100
AcDbEntity
  8
LAY-1
  6
CONTINUOUS
 62
     3
100
AcDbLine
 10
312.0334514836763
 20
72.99093499987681
 30
0.0
 11
307.05212362746
 21
78.92745036841217
 31
0.0
  0
LINE
  5
13D
330
1F
100
AcDbEntity
  8
LAY-1
  6
CONTINUOUS
 62
     3
100
AcDbLine
 10
119.0000000000002
 20
521.0000000000001
 30
0.0
 11
117.0000000000002
 21
521.0000000000001
 31
0.0
  0
LINE
  5
13E
330
1F
100
AcDbEntity
  8
LAY-1
  6
CONTINUOUS
 62
     3
100
AcDbLine
 10
117.0000000000002
 20
458.0
 30
0.0
 11
117.0000000000002
 21
521.0
 31
0.0
  0
LINE
  5
13F
330
1F
100
AcDbEntity
  8
LAY-1
  6
CONTINUOUS
 62
     3
100
AcDbLine
 10
119.0000000000002
 20
395.0
 30
0.0
 11
117.0000000000002
 21
395.0
 31
0.0
  0
LINE
  5
140
330
1F
100
AcDbEntity
  8
LAY-1
  6
CONTINUOUS
 62
     3
100
AcDbLine
 10
117.0000000000002
 20
458.0000000000001
 30
0.0
 11
117.0000000000002
 21
395.0
 31
0.0
  0
LINE
  5
141
330
1F
100
AcDbEntity
  8
LAY-1
  6
CONTINUOUS
 62
     3
100
AcDbLine
 10
133.0000000000003
 20
365.5
 30
0.0
 11
119.0000000000002
 21
365.5
 31
0.0
  0
ARC
  5
142
330
1F
100
AcDbEntity
  8
LAY-1
  6
CONTINUOUS
 62
     3
100
AcDbCircle
 10
133.0000000000003
 20
367.5
 30
0.0
 40
2.0
100
AcDbArc
 50
270.0
 51
0.0
  0
LINE
  5
143
330
1F
100
AcDbEntity
  8
LAY-1
  6
CONTINUOUS
 62
     3
100
AcDbLine
 10
133.0000000000003
 20
550.5
 30
0.0
 11
119.0000000000002
 21
550.5
 31
0.0
  0
LINE
  5
144
330
1F
100
AcDbEntity
  8
LAY-1
  6
CONTINUOUS
 62
     3
100
AcDbLine
 10
155.0
 20
503.9999999999998
 30
0.0
 11
141.8171793746731
 21
507.2957051563316
 31
0.0
  0
ARC
  5
145
330
1F
100
AcDbEntity
  8
LAY-1
  6
CONTINUOUS
 62
     3
100
AcDbCircle
 10
144.0000000000001
 20
516.0269876576396
 30
0.0
 40
9.0
100
AcDbArc
 50
180.0
 51
255.9637565320739
  0
ARC
  5
146
330
1F
100
AcDbEntity
  8
LAY-1
  6
CONTINUOUS
 62
     3
100
AcDbCircle
 10
133.0000000000001
 20
548.4999999999998
 30
0.0
 40
2.0
100
AcDbArc
 50
0.0
 51
90.00000000000001
  0
LINE
  5
147
330
1F
100
AcDbEntity
  8
LAY-1
  6
CONTINUOUS
 62
     3
100
AcDbLine
 10
405.0000000000001
 20
521.0
 30
0.0
 11
407.0000000000001
 21
521.0
 31
0.0
  0
LINE
  5
148
330
1F
100
AcDbEntity
  8
LAY-1
  6
CONTINUOUS
 62
     3
100
AcDbLine
 10
407.0000000000001
 20
458.0
 30
0.0
 11
407.0000000000001
 21
521.0
 31
0.0
  0
LINE
  5
149
330
1F
100
AcDbEntity
  8
LAY-1
  6
CONTINUOUS
 62
     3
100
AcDbLine
 10
405.0000000000003
 20
395.0000000000002
 30
0.0
 11
407.0000000000003
 21
395.0000000000002
 31
0.0
  0
LINE
  5
14A
330
1F
100
AcDbEntity
  8
LAY-1
  6
CONTINUOUS
 62
     3
100
AcDbLine
 10
407.0000000000001
 20
458.0000000000002
 30
0.0
 11
407.0000000000003
 21
395.0000000000002
 31
0.0
  0
LINE
  5
14B
330
1F
100
AcDbEntity
  8
LAY-1
  6
CONTINUOUS
 62
     3
100
AcDbLine
 10
390.9999999999999
 20
550.5
 30
0.0
 11
405.0000000000003
 21
550.5
 31
0.0
  0
ARC
  5
14C
330
1F
100
AcDbEntity
  8
LAY-1
  6
CONTINUOUS
 62
     3
100
AcDbCircle
 10
390.9999999999999
 20
548.5
 30
0.0
 40
2.0
100
AcDbArc
 50
90.00000000000001
 51
180.0
  0
ARC
  5
14D
330
1F
100
AcDbEntity
  8
LAY-1
  6
CONTINUOUS
 62
     3
100
AcDbCircle
 10
403.0000000000003
 20
367.5000000000002
 30
0.0
 40
2.0
100
AcDbArc
 50
270.0
 51
0.0
  0
LINE
  5
14E
330
1F
100
AcDbEntity
  8
LAY-1
  6
CONTINUOUS
 62
     3
100
AcDbLine
 10
369.0
 20
504.0
 30
0.0
 11
382.1828206253268
 21
507.2957051563317
 31
0.0
  0
ARC
  5
14F
330
1F
100
AcDbEntity
  8
LAY-1
  6
CONTINUOUS
 62
     3
100
AcDbCircle
 10
379.9999999999999
 20
516.0269876576397
 30
0.0
 40
9.0
100
AcDbArc
 50
284.0362434679265
 51
0.0
  0
ARC
  5
150
330
1F
100
AcDbEntity
  8
LAY-1
  6
CONTINUOUS
 62
     3
100
AcDbCircle
 10
390.9999999999999
 20
367.5000000000002
 30
0.0
 40
2.0
100
AcDbArc
 50
180.0
 51
270.0
  0
LINE
  5
151
330
1F
100
AcDbEntity
  8
LAY-1
  6
CONTINUOUS
 62
     3
100
AcDbLine
 10
391.0
 20
365.5000000000002
 30
0.0
 11
403.0000000000003
 21
365.5000000000002
 31
0.0
  0
LINE
  5
152
330
1F
100
AcDbEntity
  8
LAY-1
  6
CONTINUOUS
 62
     3
100
AcDbLine
 10
165.85
 20
504.0
 30
0.0
 11
169.0000000000006
 21
504.0
 31
0.0
  0
LINE
  5
153
330
1F
100
AcDbEntity
  8
LAY-1
  6
CONTINUOUS
 62
     3
100
AcDbLine
 10
294.40938561825
 20
504.0
 30
0.0
 11
369.0
 21
504.0
 31
0.0
  0
ARC
  5
154
330
1F
100
AcDbEntity
  8
LAY-1
  6
CONTINUOUS
 62
     3
100
AcDbCircle
 10
235.8889598114571
 20
518.5619450761867
 30
0.0
 40
35.0
100
AcDbArc
 50
234.6738113831241
 51
308.5031543578312
  0
ARC
  5
155
330
1F
100
AcDbEntity
  8
LAY-1
  6
CONTINUOUS
 62
     3
100
AcDbCircle
 10
294.4093856182477
 20
445.0
 30
0.0
 40
58.99999999999999
100
AcDbArc
 50
90.00000000000001
 51
128.5031543578312
  0
ARC
  5
156
330
1F
100
AcDbEntity
  8
LAY-1
  6
CONTINUOUS
 62
     3
100
AcDbCircle
 10
171.7053629660192
 20
427.9999999999999
 30
0.0
 40
76.0
100
AcDbArc
 50
54.67381138312407
 51
90.00000000000001
  0
LINE
  5
157
330
1F
100
AcDbEntity
  8
LAY-1
  6
CONTINUOUS
 62
     3
100
AcDbLine
 10
171.7053629660199
 20
504.0
 30
0.0
 11
154.9999999999999
 21
504.0
 31
0.0
  0
LINE
  5
158
330
1F
100
AcDbEntity
  8
LAY-1
  6
CONTINUOUS
 62
     3
100
AcDbLine
 10
405.0000000000001
 20
458.0000000000001
 30
0.0
 11
405.0000000000001
 21
550.4999999999999
 31
0.0
  0
LINE
  5
159
330
1F
100
AcDbEntity
  8
LAY-1
  6
CONTINUOUS
 62
     3
100
AcDbLine
 10
405.0000000000003
 20
458.0000000000001
 30
0.0
 11
405.0000000000003
 21
367.5000000000002
 31
0.0
  0
LINE
  5
15A
330
1F
100
AcDbEntity
  8
LAY-1
  6
CONTINUOUS
 62
     3
100
AcDbLine
 10
388.9999999999999
 20
458.0000000000001
 30
0.0
 11
389.0000000000003
 21
367.5000000000002
 31
0.0
  0
LINE
  5
15B
330
1F
100
AcDbEntity
  8
LAY-1
  6
CONTINUOUS
 62
     3
100
AcDbLine
 10
388.9999999999999
 20
458.0000000000001
 30
0.0
 11
389.0000000000003
 21
548.5
 31
0.0
  0
LINE
  5
15C
330
1F
100
AcDbEntity
  8
LAY-1
  6
CONTINUOUS
 62
     3
100
AcDbLine
 10
135.0000000000001
 20
458.0
 30
0.0
 11
134.9999999999996
 21
548.4999999999998
 31
0.0
  0
LINE
  5
15D
330
1F
100
AcDbEntity
  8
LAY-1
  6
CONTINUOUS
 62
     3
100
AcDbLine
 10
135.0000000000003
 20
458.0
 30
0.0
 11
135.0000000000003
 21
367.5
 31
0.0
  0
LINE
  5
15E
330
1F
100
AcDbEntity
  8
LAY-1
  6
CONTINUOUS
 62
     3
100
AcDbLine
 10
119.0000000000002
 20
458.0
 30
0.0
 11
119.0000000000002
 21
365.5000000000001
 31
0.0
  0
LINE
  5
15F
330
1F
100
AcDbEntity
  8
LAY-1
  6
CONTINUOUS
 62
     3
100
AcDbLine
 10
119.0000000000002
 20
458.0
 30
0.0
 11
119.0000000000002
 21
550.5
 31
0.0
  0
LINE
  5
160
330
1F
100
AcDbEntity
  8
LAY-1
  6
EXLTYPE3
 62
     1
100
AcDbLine
 10
108.6999999999999
 20
458.0
 30
0.0
 11
415.75
 21
458.0000000000001
 31
0.0
  0
LINE
  5
161
330
1F
100
AcDbEntity
  8
LAY-1
  6
EXLTYPE1
 62
     1
100
AcDbLine
 10
409.75
 20
383.0000000000001
 30
0.0
 11
383.5000000000001
 21
383.0000000000001
 31
0.0
  0
LINE
  5
162
330
1F
100
AcDbEntity
  8
LAY-1
  6
EXLTYPE1
 62
     1
100
AcDbLine
 10
409.75
 20
533.0000000000001
 30
0.0
 11
383.5000000000001
 21
533.0000000000001
 31
0.0
  0
LINE
  5
163
330
1F
100
AcDbEntity
  8
LAY-1
  6
EXLTYPE1
 62
     1
100
AcDbLine
 10
113.8000000000002
 20
533.0000000000005
 30
0.0
 11
140.0500000000003
 21
533.0000000000003
 31
0.0
  0
LINE
  5
164
330
1F
100
AcDbEntity
  8
LAY-1
  6
EXLTYPE1
 62
     1
100
AcDbLine
 10
113.8
 20
383.0000000000008
 30
0.0
 11
140.05
 21
383.0000000000007
 31
0.0
  0
ELLIPSE
  5
165
330
1F
100
AcDbEntity
  8
LAY-1
  6
CONTINUOUS
 62
     3
100
AcDbEllipse
 10
306.87988920654
 20
458.0
 30
0.0
 11
-1.469576158976824E-14
 21
-80.0
 31
0.0
210
0.0
220
0.0
230
1.0
 40
0.7660444431188754
 41
2.183400474843519
 42
3.141592653589793
  0
ELLIPSE
  5
166
330
1F
100
AcDbEntity
  8
LAY-1
  6
CONTINUOUS
 62
     3
100
AcDbEllipse
 10
293.70274320796
 20
458.0
 30
0.0
 11
-1.469576158976824E-14
 21
-80.0
 31
0.0
210
0.0
220
0.0
230
1.0
 40
0.7660444431188754
 41
2.183400474843519
 42
3.141592653589793
  0
ELLIPSE
  5
167
330
1F
100
AcDbEntity
  8
LAY-1
  6
CONTINUOUS
 62
     3
100
AcDbEllipse
 10
295.30971223218
 20
458.0
 30
0.0
 11
-1.469576158976824E-14
 21
-80.0
 31
0.0
210
0.0
220
0.0
230
1.0
 40
0.7660444431188754
 41
2.183400474843519
 42
3.141592653589793
  0
LINE
  5
168
330
1F
100
AcDbEntity
  8
LAY-1
  6
CONTINUOUS
 62
     3
100
AcDbLine
 10
306.87988920654
 20
537.9999999999999
 30
0.0
 11
295.30971223218
 21
537.9999999999999
 31
0.0
  0
LINE
  5
169
330
1F
100
AcDbEntity
  8
LAY-1
  6
CONTINUOUS
 62
     3
100
AcDbLine
 10
293.70274320796
 20
537.9999999999999
 30
0.0
 11
282.77535384329
 21
537.9999999999999
 31
0.0
  0
ELLIPSE
  5
16A
330
1F
100
AcDbEntity
  8
LAY-1
  6
CONTINUOUS
 62
     3
100
AcDbEllipse
 10
282.77535384329
 20
523.0
 30
0.0
 11
-1.285879139104721E-15
 21
-7.000000000000002
 31
0.0
210
0.0
220
0.0
230
1.0
 40
0.7660444431199946
 41
0.0
 42
6.283185307179586
  0
ELLIPSE
  5
16B
330
1F
100
AcDbEntity
  8
LAY-1
  6
CONTINUOUS
 62
     1
100
AcDbEllipse
 10
282.77535384329
 20
523.0
 30
0.0
 11
-1.087027115093173E-15
 21
-5.917500000000018
 31
0.0
210
0.0
220
0.0
230
1.0
 40
0.7660444431195583
 41
0.0
 42
6.283185307179586
  0
ARC
  5
16C
330
1F
100
AcDbEntity
  8
LAY-1
  6
CONTINUOUS
 62
     3
100
AcDbCircle
 10
245.93862020068
 20
435.4730801438716
 30
0.0
 40
85.13291985612841
100
AcDbArc
 50
66.16622010886029
 51
115.7982323038394
  0
ARC
  5
16D
330
1F
100
AcDbEntity
  8
LAY-1
  6
CONTINUOUS
 62
     3
100
AcDbCircle
 10
239.7364837450042
 20
448.3038258310571
 30
0.0
 40
70.88179598802418
100
AcDbArc
 50
115.7982323038392
 51
131.8388850335012
  0
ELLIPSE
  5
16E
330
1F
100
AcDbEntity
  8
LAY-1
  6
CONTINUOUS
 62
     3
100
AcDbEllipse
 10
282.77535384329
 20
458.0
 30
0.0
 11
-1.469576158976824E-14
 21
-80.0
 31
0.0
210
0.0
220
0.0
230
1.0
 40
0.7660444431188754
 41
2.183400474843519
 42
3.813804902237015
  0
ELLIPSE
  5
16F
330
1F
100
AcDbEntity
  8
LAY-1
  6
EXLTYPE3
 62
     1
100
AcDbEllipse
 10
282.77535384329
 20
458.0
 30
0.0
 11
-1.194030629168669E-14
 21
-65.0
 31
0.0
210
0.0
220
0.0
230
1.0
 40
0.7660444431189236
 41
2.357022892938204
 42
3.514645177773016
  0
ELLIPSE
  5
170
330
1F
100
AcDbEntity
  8
LAY-1
  6
CONTINUOUS
 62
     3
100
AcDbEllipse
 10
280.33952711185
 20
458.0
 30
0.0
 11
3.388965087280470E-15
 21
55.346
 31
0.0
210
0.0
220
0.0
230
1.0
 40
0.7660481670509158
 41
-0.5896505632075086
 42
0.0
  0
LINE
  5
171
330
1F
100
AcDbEntity
  8
LAY-1
  6
EXLTYPE3
 62
     1
100
AcDbLine
 10
282.7753538432899
 20
533.9999999999999
 30
0.0
 11
282.7753538432895
 21
513.2545837905119
 31
0.0
  0
ARC
  5
172
330
1F
100
AcDbEntity
  8
LAY-1
  6
CONTINUOUS
 62
     3
100
AcDbCircle
 10
193.0558122714485
 20
459.6364811753587
 30
0.0
 40
37.83314754001135
100
AcDbArc
 50
0.0
 51
55.98584540751058
  0
ARC
  5
173
330
1F
100
AcDbEntity
  8
LAY-1
  6
CONTINUOUS
 62
     3
100
AcDbCircle
 10
278.7221073514717
 20
459.6364811753587
 30
0.0
 40
37.83314754001135
100
AcDbArc
 50
124.0141545924894
 51
180.0
  0
LINE
  5
174
330
1F
100
AcDbEntity
  8
LAY-1
  6
CONTINUOUS
 62
     3
100
AcDbLine
 10
155.0000000000001
 20
412.0000000000002
 30
0.0
 11
141.8171793746731
 21
408.7042948436684
 31
0.0
  0
ARC
  5
175
330
1F
100
AcDbEntity
  8
LAY-1
  6
CONTINUOUS
 62
     3
100
AcDbCircle
 10
144.0000000000001
 20
399.9730123423604
 30
0.0
 40
9.0
100
AcDbArc
 50
104.0362434679261
 51
180.0
  0
LINE
  5
176
330
1F
100
AcDbEntity
  8
LAY-1
  6
CONTINUOUS
 62
     3
100
AcDbLine
 10
369.0
 20
412.0000000000002
 30
0.0
 11
382.1828206253268
 21
408.7042948436685
 31
0.0
  0
ARC
  5
177
330
1F
100
AcDbEntity
  8
LAY-1
  6
CONTINUOUS
 62
     3
100
AcDbCircle
 10
379.9999999999999
 20
399.9730123423605
 30
0.0
 40
9.0
100
AcDbArc
 50
0.0
 51
75.96375653207389
  0
LINE
  5
178
330
1F
100
AcDbEntity
  8
LAY-1
  6
CONTINUOUS
 62
     3
100
AcDbLine
 10
165.85
 20
412.0000000000001
 30
0.0
 11
169.0000000000006
 21
412.0000000000001
 31
0.0
  0
LINE
  5
179
330
1F
100
AcDbEntity
  8
LAY-1
  6
CONTINUOUS
 62
     3
100
AcDbLine
 10
294.40938561825
 20
412.0000000000001
 30
0.0
 11
369.0
 21
412.0000000000002
 31
0.0
  0
ARC
  5
17A
330
1F
100
AcDbEntity
  8
LAY-1
  6
CONTINUOUS
 62
     3
100
AcDbCircle
 10
235.8889598114572
 20
397.4380549238134
 30
0.0
 40
35.0
100
AcDbArc
 50
51.49684564216879
 51
125.326188616876
  0
ARC
  5
17B
330
1F
100
AcDbEntity
  8
LAY-1
  6
CONTINUOUS
 62
     3
100
AcDbCircle
 10
294.4093856182477
 20
471.0000000000001
 30
0.0
 40
58.99999999999999
100
AcDbArc
 50
231.4968456421688
 51
270.0
  0
ARC
  5
17C
330
1F
100
AcDbEntity
  8
LAY-1
  6
CONTINUOUS
 62
     3
100
AcDbCircle
 10
171.7053629660192
 20
488.0000000000001
 30
0.0
 40
76.0
100
AcDbArc
 50
270.0
 51
305.326188616876
  0
LINE
  5
17D
330
1F
100
AcDbEntity
  8
LAY-1
  6
CONTINUOUS
 62
     3
100
AcDbLine
 10
171.70536296602
 20
412.0000000000001
 30
0.0
 11
154.9999999999999
 21
412.0
 31
0.0
  0
ELLIPSE
  5
17E
330
1F
100
AcDbEntity
  8
LAY-1
  6
CONTINUOUS
 62
     3
100
AcDbEllipse
 10
306.87988920654
 20
458.0000000000001
 30
0.0
 11
-3.062854959141560E-14
 21
80.0
 31
0.0
210
0.0
220
0.0
230
1.0
 40
0.7660444431188754
 41
3.141592653589794
 42
4.099784832336066
  0
ELLIPSE
  5
17F
330
1F
100
AcDbEntity
  8
LAY-1
  6
CONTINUOUS
 62
     3
100
AcDbEllipse
 10
293.70274320796
 20
458.0000000000001
 30
0.0
 11
-3.062854959141560E-14
 21
80.0
 31
0.0
210
0.0
220
0.0
230
1.0
 40
0.7660444431188754
 41
3.141592653589794
 42
4.099784832336066
  0
ELLIPSE
  5
180
330
1F
100
AcDbEntity
  8
LAY-1
  6
CONTINUOUS
 62
     3
100
AcDbEllipse
 10
295.30971223218
 20
458.0000000000001
 30
0.0
 11
-3.062854959141560E-14
 21
80.0
 31
0.0
210
0.0
220
0.0
230
1.0
 40
0.7660444431188754
 41
3.141592653589794
 42
4.099784832336066
  0
LINE
  5
181
330
1F
100
AcDbEntity
  8
LAY-1
  6
CONTINUOUS
 62
     3
100
AcDbLine
 10
306.87988920654
 20
378.0000000000002
 30
0.0
 11
295.3097122321801
 21
378.0000000000002
 31
0.0
  0
LINE
  5
182
330
1F
100
AcDbEntity
  8
LAY-1
  6
CONTINUOUS
 62
     3
100
AcDbLine
 10
293.7027432079601
 20
378.0000000000002
 30
0.0
 11
282.7753538432901
 21
378.0000000000002
 31
0.0
  0
ELLIPSE
  5
183
330
1F
100
AcDbEntity
  8
LAY-1
  6
CONTINUOUS
 62
     3
100
AcDbEllipse
 10
282.7753538432901
 20
393.0000000000001
 30
0.0
 11
-2.679998089248865E-15
 21
7.000000000000002
 31
0.0
210
0.0
220
0.0
230
1.0
 40
0.7660444431199946
 41
0.0
 42
6.283185307179586
  0
ELLIPSE
  5
184
330
1F
100
AcDbEntity
  8
LAY-1
  6
CONTINUOUS
 62
     1
100
AcDbEllipse
 10
282.7753538432901
 20
393.0000000000001
 30
0.0
 11
-2.265555527590029E-15
 21
5.917500000000018
 31
0.0
210
0.0
220
0.0
230
1.0
 40
0.7660444431195583
 41
0.0
 42
6.283185307179586
  0
ARC
  5
185
330
1F
100
AcDbEntity
  8
LAY-1
  6
CONTINUOUS
 62
     3
100
AcDbCircle
 10
245.93862020068
 20
480.5269198561285
 30
0.0
 40
85.13291985612841
100
AcDbArc
 50
244.2017676961606
 51
293.8337798911398
  0
ARC
  5
186
330
1F
100
AcDbEntity
  8
LAY-1
  6
CONTINUOUS
 62
     3
100
AcDbCircle
 10
239.7364837450042
 20
467.696174168943
 30
0.0
 40
70.88179598802418
100
AcDbArc
 50
228.1611149664989
 51
244.2017676961609
  0
ELLIPSE
  5
187
330
1F
100
AcDbEntity
  8
LAY-1
  6
CONTINUOUS
 62
     3
100
AcDbEllipse
 10
282.77535384329
 20
458.0000000000001
 30
0.0
 11
-3.062854959141560E-14
 21
80.0
 31
0.0
210
0.0
220
0.0
230
1.0
 40
0.7660444431188754
 41
2.469380404942572
 42
4.099784832336066
  0
ELLIPSE
  5
188
330
1F
100
AcDbEntity
  8
LAY-1
  6
EXLTYPE3
 62
     1
100
AcDbEllipse
 10
282.77535384329
 20
458.0000000000001
 30
0.0
 11
-2.488569654302517E-14
 21
65.0
 31
0.0
210
0.0
220
0.0
230
1.0
 40
0.7660444431189236
 41
2.76854012940657
 42
3.926162414241382
  0
ELLIPSE
  5
189
330
1F
100
AcDbEntity
  8
LAY-1
  6
CONTINUOUS
 62
     3
100
AcDbEllipse
 10
280.33952711185
 20
458.0000000000001
 30
0.0
 11
-1.016689526184141E-14
 21
-55.346
 31
0.0
210
0.0
220
0.0
230
1.0
 40
0.7660481670509158
 41
0.0
 42
0.5896505632075096
  0
LINE
  5
18A
330
1F
100
AcDbEntity
  8
LAY-1
  6
EXLTYPE3
 62
     1
100
AcDbLine
 10
282.77535384329
 20
382.0000000000002
 30
0.0
 11
282.7753538432895
 21
402.7454162094882
 31
0.0
  0
ARC
  5
18B
330
1F
100
AcDbEntity
  8
LAY-1
  6
CONTINUOUS
 62
     3
100
AcDbCircle
 10
193.0558122714485
 20
456.3635188246413
 30
0.0
 40
37.83314754001135
100
AcDbArc
 50
304.0141545924895
 51
0.0
  0
ARC
  5
18C
330
1F
100
AcDbEntity
  8
LAY-1
  6
CONTINUOUS
 62
     3
100
AcDbCircle
 10
278.7221073514717
 20
456.3635188246414
 30
0.0
 40
37.83314754001135
100
AcDbArc
 50
180.0000000000001
 51
235.9858454075107
  0
CIRCLE
  5
18D
330
1F
100
AcDbEntity
  8
LAY-1
  6
CONTINUOUS
 62
     3
100
AcDbCircle
 10
624.7012574273855
 20
291.2909649383478
 30
0.0
 40
9.5
  0
CIRCLE
  5
18E
330
1F
100
AcDbEntity
  8
LAY-1
  6
CONTINUOUS
 62
     3
100
AcDbCircle
 10
665.2909649383502
 20
250.70125742738
 30
0.0
 40
9.5
  0
CIRCLE
  5
18F
330
1F
100
AcDbEntity
  8
LAY-1
  6
CONTINUOUS
 62
     3
100
AcDbCircle
 10
665.2909649383479
 20
193.2987425726146
 30
0.0
 40
9.5
  0
CIRCLE
  5
190
330
1F
100
AcDbEntity
  8
LAY-1
  6
CONTINUOUS
 62
     3
100
AcDbCircle
 10
624.7012574273803
 20
152.70903506165
 30
0.0
 40
9.5
  0
CIRCLE
  5
191
330
1F
100
AcDbEntity
  8
LAY-1
  6
CONTINUOUS
 62
     3
100
AcDbCircle
 10
596.0
 20
222.0
 30
0.0
 40
92.5
  0
CIRCLE
  5
192
330
1F
100
AcDbEntity
  8
LAY-1
  6
CONTINUOUS
 62
     3
100
AcDbCircle
 10
596.0
 20
222.0
 30
0.0
 40
40.0
  0
CIRCLE
  5
193
330
1F
100
AcDbEntity
  8
LAY-1
  6
CONTINUOUS
 62
     3
100
AcDbCircle
 10
596.0
 20
222.0
 30
0.0
 40
63.0
  0
LINE
  5
194
330
1F
100
AcDbEntity
  8
LAY-1
  6
EXLTYPE3
 62
     1
100
AcDbLine
 10
498.0
 20
221.9999999999999
 30
0.0
 11
694.0
 21
222.0000000000001
 31
0.0
  0
CIRCLE
  5
195
330
1F
100
AcDbEntity
  8
LAY-1
  6
EXLTYPE3
 62
     1
100
AcDbCircle
 10
596.0000000000001
 20
222.0
 30
0.0
 40
75.0
  0
LINE
  5
196
330
1F
100
AcDbEntity
  8
LAY-1
  6
EXLTYPE3
 62
     1
100
AcDbLine
 10
629.5563491861022
 20
303.0121933088206
 30
0.0
 11
620.109056238998
 21
280.2044105482121
 31
0.0
  0
LINE
  5
197
330
1F
100
AcDbEntity
  8
LAY-1
  6
EXLTYPE3
 62
     1
100
AcDbLine
 10
676.9515331370392
 20
255.5312229202591
 30
0.0
 11
654.2044105482099
 21
246.1090562390034
 31
0.0
  0
LINE
  5
198
330
1F
100
AcDbEntity
  8
LAY-1
  6
EXLTYPE3
 62
     1
100
AcDbLine
 10
677.365746699414
 20
188.2972042044914
 30
0.0
 11
654.2044105482122
 21
197.8909437610021
 31
0.0
  0
LINE
  5
199
330
1F
100
AcDbEntity
  8
LAY-1
  6
EXLTYPE3
 62
     1
100
AcDbLine
 10
629.7027957955131
 20
140.634253300588
 30
0.0
 11
620.1090562390036
 21
163.7955894517901
 31
0.0
  0
CIRCLE
  5
19A
330
1F
100
AcDbEntity
  8
LAY-1
  6
CONTINUOUS
 62
     3
100
AcDbCircle
 10
624.7012574273856
 20
152.7090350616523
 30
0.0
 40
9.5
  0
CIRCLE
  5
19B
330
1F
100
AcDbEntity
  8
LAY-1
  6
CONTINUOUS
 62
     3
100
AcDbCircle
 10
665.2909649383503
 20
193.2987425726202
 30
0.0
 40
9.5
  0
CIRCLE
  5
19C
330
1F
100
AcDbEntity
  8
LAY-1
  6
CONTINUOUS
 62
     3
100
AcDbCircle
 10
665.2909649383478
 20
250.7012574273856
 30
0.0
 40
9.5
  0
CIRCLE
  5
19D
330
1F
100
AcDbEntity
  8
LAY-1
  6
CONTINUOUS
 62
     3
100
AcDbCircle
 10
624.7012574273801
 20
291.2909649383501
 30
0.0
 40
9.5
  0
LINE
  5
19E
330
1F
100
AcDbEntity
  8
LAY-1
  6
EXLTYPE3
 62
     1
100
AcDbLine
 10
629.5563491861025
 20
140.9878066911795
 30
0.0
 11
620.1090562389982
 21
163.795589451788
 31
0.0
  0
LINE
  5
19F
330
1F
100
AcDbEntity
  8
LAY-1
  6
EXLTYPE3
 62
     1
100
AcDbLine
 10
676.9515331370393
 20
188.4687770797412
 30
0.0
 11
654.20441054821
 21
197.8909437609968
 31
0.0
  0
LINE
  5
1A0
330
1F
100
AcDbEntity
  8
LAY-1
  6
EXLTYPE3
 62
     1
100
AcDbLine
 10
677.3657466994139
 20
255.7027957955089
 30
0.0
 11
654.2044105482121
 21
246.1090562389981
 31
0.0
  0
LINE
  5
1A1
330
1F
100
AcDbEntity
  8
LAY-1
  6
EXLTYPE3
 62
     1
100
AcDbLine
 10
629.7027957955129
 20
303.3657466994121
 30
0.0
 11
620.1090562390035
 21
280.20441054821
 31
0.0
  0
CIRCLE
  5
1A2
330
1F
100
AcDbEntity
  8
LAY-1
  6
CONTINUOUS
 62
     3
100
AcDbCircle
 10
567.2987425726147
 20
291.2909649383478
 30
0.0
 40
9.5
  0
CIRCLE
  5
1A3
330
1F
100
AcDbEntity
  8
LAY-1
  6
CONTINUOUS
 62
     3
100
AcDbCircle
 10
526.7090350616501
 20
250.70125742738
 30
0.0
 40
9.5
  0
CIRCLE
  5
1A4
330
1F
100
AcDbEntity
  8
LAY-1
  6
CONTINUOUS
 62
     3
100
AcDbCircle
 10
526.7090350616523
 20
193.2987425726146
 30
0.0
 40
9.5
  0
CIRCLE
  5
1A5
330
1F
100
AcDbEntity
  8
LAY-1
  6
CONTINUOUS
 62
     3
100
AcDbCircle
 10
567.29874257262
 20
152.70903506165
 30
0.0
 40
9.5
  0
LINE
  5
1A6
330
1F
100
AcDbEntity
  8
LAY-1
  6
EXLTYPE3
 62
     1
100
AcDbLine
 10
562.443650813898
 20
303.0121933088206
 30
0.0
 11
571.8909437610022
 21
280.2044105482121
 31
0.0
  0
LINE
  5
1A7
330
1F
100
AcDbEntity
  8
LAY-1
  6
EXLTYPE3
 62
     1
100
AcDbLine
 10
515.048466862961
 20
255.5312229202591
 30
0.0
 11
537.7955894517903
 21
246.1090562390034
 31
0.0
  0
LINE
  5
1A8
330
1F
100
AcDbEntity
  8
LAY-1
  6
EXLTYPE3
 62
     1
100
AcDbLine
 10
514.6342533005862
 20
188.2972042044914
 30
0.0
 11
537.795589451788
 21
197.8909437610022
 31
0.0
  0
LINE
  5
1A9
330
1F
100
AcDbEntity
  8
LAY-1
  6
EXLTYPE3
 62
     1
100
AcDbLine
 10
562.2972042044871
 20
140.634253300588
 30
0.0
 11
571.8909437609966
 21
163.7955894517901
 31
0.0
  0
CIRCLE
  5
1AA
330
1F
100
AcDbEntity
  8
LAY-1
  6
CONTINUOUS
 62
     3
100
AcDbCircle
 10
567.2987425726146
 20
152.7090350616523
 30
0.0
 40
9.5
  0
CIRCLE
  5
1AB
330
1F
100
AcDbEntity
  8
LAY-1
  6
CONTINUOUS
 62
     3
100
AcDbCircle
 10
526.70903506165
 20
193.2987425726202
 30
0.0
 40
9.5
  0
CIRCLE
  5
1AC
330
1F
100
AcDbEntity
  8
LAY-1
  6
CONTINUOUS
 62
     3
100
AcDbCircle
 10
526.7090350616525
 20
250.7012574273857
 30
0.0
 40
9.5
  0
CIRCLE
  5
1AD
330
1F
100
AcDbEntity
  8
LAY-1
  6
CONTINUOUS
 62
     3
100
AcDbCircle
 10
567.2987425726201
 20
291.2909649383501
 30
0.0
 40
9.5
  0
LINE
  5
1AE
330
1F
100
AcDbEntity
  8
LAY-1
  6
EXLTYPE3
 62
     1
100
AcDbLine
 10
562.4436508138978
 20
140.9878066911795
 30
0.0
 11
571.8909437610021
 21
163.795589451788
 31
0.0
  0
LINE
  5
1AF
330
1F
100
AcDbEntity
  8
LAY-1
  6
EXLTYPE3
 62
     1
100
AcDbLine
 10
515.0484668629609
 20
188.4687770797412
 30
0.0
 11
537.7955894517902
 21
197.8909437609968
 31
0.0
  0
LINE
  5
1B0
330
1F
100
AcDbEntity
  8
LAY-1
  6
EXLTYPE3
 62
     1
100
AcDbLine
 10
514.6342533005864
 20
255.7027957955089
 30
0.0
 11
537.7955894517881
 21
246.1090562389981
 31
0.0
  0
LINE
  5
1B1
330
1F
100
AcDbEntity
  8
LAY-1
  6
EXLTYPE3
 62
     1
100
AcDbLine
 10
562.2972042044873
 20
303.3657466994121
 30
0.0
 11
571.8909437609967
 21
280.20441054821
 31
0.0
  0
LINE
  5
1B2
330
1F
100
AcDbEntity
  8
LAY-1
  6
EXLTYPE3
 62
     1
100
AcDbLine
 10
596.0000000000001
 20
320.0
 30
0.0
 11
596.0000000000001
 21
21.0
 31
0.0
  0
ELLIPSE
  5
1B3
330
1F
100
AcDbEntity
  8
LAY-1
  6
CONTINUOUS
 62
     3
100
AcDbEllipse
 10
596.0
 20
92.9215113344555
 30
0.0
 11
80.0
 21
-1.959434878635765E-14
 31
0.0
210
0.0
220
0.0
230
1.0
 40
0.6427876096865562
 41
2.074723052115295
 42
3.141592653589822
  0
ELLIPSE
  5
1B4
330
1F
100
AcDbEntity
  8
LAY-1
  6
CONTINUOUS
 62
     3
100
AcDbEllipse
 10
596.0
 20
94.83662244224901
 30
0.0
 11
80.0
 21
-1.959434878635765E-14
 31
0.0
210
0.0
220
0.0
230
1.0
 40
0.6427876096865125
 41
2.107396774075982
 42
3.141592600277779
  0
ELLIPSE
  5
1B5
330
1F
100
AcDbEntity
  8
LAY-1
  6
CONTINUOUS
 62
     3
100
AcDbEllipse
 10
596.0
 20
107.859377975275
 30
0.0
 11
80.0
 21
-1.959434878635765E-14
 31
0.0
210
0.0
220
0.0
230
1.0
 40
0.6427876096865625
 41
2.297433050096376
 42
3.141592600277779
  0
LINE
  5
1B6
330
1F
100
AcDbEntity
  8
LAY-1
  6
CONTINUOUS
 62
     3
100
AcDbLine
 10
516.0000000000001
 20
107.8593807167392
 30
0.0
 11
516.0000000000001
 21
94.83662518371324
 31
0.0
  0
LINE
  5
1B7
330
1F
100
AcDbEntity
  8
LAY-1
  6
CONTINUOUS
 62
     3
100
AcDbLine
 10
516.0000000000001
 20
92.92151407591973
 30
0.0
 11
516.0000000000001
 21
79.1327086168478
 31
0.0
  0
LINE
  5
1B8
330
1F
100
AcDbEntity
  8
LAY-1
  6
CONTINUOUS
 62
     3
100
AcDbLine
 10
676.0
 20
107.8593807167392
 30
0.0
 11
676.0
 21
94.83662518371321
 31
0.0
  0
LINE
  5
1B9
330
1F
100
AcDbEntity
  8
LAY-1
  6
CONTINUOUS
 62
     3
100
AcDbLine
 10
676.0
 20
92.9215140759197
 30
0.0
 11
676.0
 21
79.13270861684776
 31
0.0
  0
ELLIPSE
  5
1BA
330
1F
100
AcDbEntity
  8
LAY-1
  6
CONTINUOUS
 62
     3
100
AcDbEllipse
 10
596.0000000000002
 20
92.92151133445549
 30
0.0
 11
80.0
 21
-1.959434878635765E-14
 31
0.0
210
0.0
220
0.0
230
1.0
 40
0.6427876096865562
 41
0.0
 42
1.066869601474498
  0
ELLIPSE
  5
1BB
330
1F
100
AcDbEntity
  8
LAY-1
  6
CONTINUOUS
 62
     3
100
AcDbEllipse
 10
596.0000000000002
 20
94.836622442249
 30
0.0
 11
80.0
 21
-1.959434878635765E-14
 31
0.0
210
0.0
220
0.0
230
1.0
 40
0.6427876096865125
 41
0.0000000533120146
 42
1.034195879513811
  0
ELLIPSE
  5
1BC
330
1F
100
AcDbEntity
  8
LAY-1
  6
CONTINUOUS
 62
     3
100
AcDbEllipse
 10
596.0000000000002
 20
107.859377975275
 30
0.0
 11
80.0
 21
-1.959434878635765E-14
 31
0.0
210
0.0
220
0.0
230
1.0
 40
0.6427876096865625
 41
0.0000000533120146
 42
0.844159603493418
  0
ARC
  5
1BD
330
1F
100
AcDbEntity
  8
LAY-1
  6
CONTINUOUS
 62
     3
100
AcDbCircle
 10
940.8442708204132
 20
151.7596876332999
 30
0.0
 40
407.4502708204132
100
AcDbArc
 50
179.6988552545324
 51
181.6525373977499
  0
ARC
  5
1BE
330
1F
100
AcDbEntity
  8
LAY-1
  6
CONTINUOUS
 62
     3
100
AcDbCircle
 10
251.155729179587
 20
151.7596876333
 30
0.0
 40
407.4502708204132
100
AcDbArc
 50
358.3474626022502
 51
0.3011447454676063
  0
LINE
  5
1BF
330
1F
100
AcDbEntity
  8
LAY-1
  6
CONTINUOUS
 62
     3
100
AcDbLine
 10
518.29829407783
 20
72.238311370273
 30
0.0
 11
524.64914703892
 21
79.308975076825
 31
0.0
  0
LINE
  5
1C0
330
1F
100
AcDbEntity
  8
LAY-1
  6
CONTINUOUS
 62
     3
100
AcDbLine
 10
537.35085296108
 20
79.308975076825
 30
0.0
 11
543.70170592217
 21
72.238311370273
 31
0.0
  0
LINE
  5
1C1
330
1F
100
AcDbEntity
  8
LAY-1
  6
CONTINUOUS
 62
     3
100
AcDbLine
 10
543.70170592217
 20
72.238311370277
 30
0.0
 11
537.35085296108
 21
65.167647663721
 31
0.0
  0
LINE
  5
1C2
330
1F
100
AcDbEntity
  8
LAY-1
  6
CONTINUOUS
 62
     3
100
AcDbLine
 10
518.29829407784
 20
72.238311370284
 30
0.0
 11
524.64914703892
 21
65.167647663721
 31
0.0
  0
ELLIPSE
  5
1C3
330
1F
100
AcDbEntity
  8
LAY-1
  6
CONTINUOUS
 62
     3
100
AcDbEllipse
 10
531.0
 20
72.238311370273
 30
0.0
 11
11.0
 21
0.0
 31
0.0
210
0.0
220
0.0
230
1.0
 40
0.6427876096865466
 41
0.0
 42
6.283185307179586
  0
LINE
  5
1C4
330
1F
100
AcDbEntity
  8
LAY-1
  6
CONTINUOUS
 62
     3
100
AcDbLine
 10
524.64914703892
 20
79.30897507682502
 30
0.0
 11
537.35085296108
 21
79.30897507682502
 31
0.0
  0
LINE
  5
1C5
330
1F
100
AcDbEntity
  8
LAY-1
  6
CONTINUOUS
 62
     3
100
AcDbLine
 10
524.64914703892
 20
65.16764766372101
 30
0.0
 11
537.35085296108
 21
65.16764766372103
 31
0.0
  0
LINE
  5
1C6
330
1F
100
AcDbEntity
  8
LAY-1
  6
CONTINUOUS
 62
     3
100
AcDbLine
 10
537.35085296108
 20
86.203375064895
 30
0.0
 11
543.70170592217
 21
79.13271135834299
 31
0.0
  0
LINE
  5
1C7
330
1F
100
AcDbEntity
  8
LAY-1
  6
CONTINUOUS
 62
     3
100
AcDbLine
 10
524.64914703892
 20
86.20337506489501
 30
0.0
 11
537.35085296108
 21
86.20337506489501
 31
0.0
  0
LINE
  5
1C8
330
1F
100
AcDbEntity
  8
LAY-1
  6
CONTINUOUS
 62
     3
100
AcDbLine
 10
518.29829407783
 20
79.13271135834299
 30
0.0
 11
524.64914703892
 21
86.203375064895
 31
0.0
  0
LINE
  5
1C9
330
1F
100
AcDbEntity
  8
LAY-1
  6
CONTINUOUS
 62
     3
100
AcDbLine
 10
518.2982940777999
 20
72.238311370324
 30
0.0
 11
518.2982940777999
 21
79.13271135834302
 31
0.0
  0
LINE
  5
1CA
330
1F
100
AcDbEntity
  8
LAY-1
  6
CONTINUOUS
 62
     3
100
AcDbLine
 10
543.70170592217
 20
72.23831137028
 30
0.0
 11
543.70170592217
 21
79.13271135834302
 31
0.0
  0
LINE
  5
1CB
330
1F
100
AcDbEntity
  8
LAY-1
  6
CONTINUOUS
 62
     3
100
AcDbLine
 10
537.35085296108
 20
86.203375064895
 30
0.0
 11
537.35085296108
 21
79.30897507682502
 31
0.0
  0
LINE
  5
1CC
330
1F
100
AcDbEntity
  8
LAY-1
  6
CONTINUOUS
 62
     3
100
AcDbLine
 10
524.64914703892
 20
86.203375064895
 30
0.0
 11
524.64914703892
 21
79.30897507682502
 31
0.0
  0
LINE
  5
1CD
330
1F
100
AcDbEntity
  8
LAY-1
  6
CONTINUOUS
 62
     3
100
AcDbLine
 10
673.7017059221703
 20
72.23831137027295
 30
0.0
 11
667.3508529610801
 21
79.30897507682496
 31
0.0
  0
LINE
  5
1CE
330
1F
100
AcDbEntity
  8
LAY-1
  6
CONTINUOUS
 62
     3
100
AcDbLine
 10
654.6491470389201
 20
79.30897507682496
 30
0.0
 11
648.2982940778301
 21
72.23831137027298
 31
0.0
  0
LINE
  5
1CF
330
1F
100
AcDbEntity
  8
LAY-1
  6
CONTINUOUS
 62
     3
100
AcDbLine
 10
648.2982940778301
 20
72.23831137027702
 30
0.0
 11
654.6491470389201
 21
65.16764766372097
 31
0.0
  0
LINE
  5
1D0
330
1F
100
AcDbEntity
  8
LAY-1
  6
CONTINUOUS
 62
     3
100
AcDbLine
 10
673.7017059221603
 20
72.23831137028398
 30
0.0
 11
667.3508529610801
 21
65.16764766372097
 31
0.0
  0
ELLIPSE
  5
1D1
330
1F
100
AcDbEntity
  8
LAY-1
  6
CONTINUOUS
 62
     3
100
AcDbEllipse
 10
661.0000000000002
 20
72.23831137027295
 30
0.0
 11
11.0
 21
0.0
 31
0.0
210
0.0
220
0.0
230
1.0
 40
0.6427876096865466
 41
0.0
 42
6.283185307179586
  0
LINE
  5
1D2
330
1F
100
AcDbEntity
  8
LAY-1
  6
CONTINUOUS
 62
     3
100
AcDbLine
 10
667.3508529610801
 20
79.30897507682499
 30
0.0
 11
654.6491470389201
 21
79.30897507682499
 31
0.0
  0
LINE
  5
1D3
330
1F
100
AcDbEntity
  8
LAY-1
  6
CONTINUOUS
 62
     3
100
AcDbLine
 10
667.3508529610801
 20
65.167647663721
 30
0.0
 11
654.6491470389201
 21
65.167647663721
 31
0.0
  0
LINE
  5
1D4
330
1F
100
AcDbEntity
  8
LAY-1
  6
CONTINUOUS
 62
     3
100
AcDbLine
 10
654.6491470389201
 20
86.20337506489497
 30
0.0
 11
648.2982940778302
 21
79.13271135834299
 31
0.0
  0
LINE
  5
1D5
330
1F
100
AcDbEntity
  8
LAY-1
  6
CONTINUOUS
 62
     3
100
AcDbLine
 10
667.3508529610801
 20
86.20337506489497
 30
0.0
 11
654.6491470389201
 21
86.20337506489497
 31
0.0
  0
LINE
  5
1D6
330
1F
100
AcDbEntity
  8
LAY-1
  6
CONTINUOUS
 62
     3
100
AcDbLine
 10
673.7017059221703
 20
79.13271135834296
 30
0.0
 11
667.3508529610801
 21
86.20337506489497
 31
0.0
  0
LINE
  5
1D7
330
1F
100
AcDbEntity
  8
LAY-1
  6
CONTINUOUS
 62
     3
100
AcDbLine
 10
673.7017059222003
 20
72.23831137032397
 30
0.0
 11
673.7017059222003
 21
79.13271135834299
 31
0.0
  0
LINE
  5
1D8
330
1F
100
AcDbEntity
  8
LAY-1
  6
CONTINUOUS
 62
     3
100
AcDbLine
 10
648.2982940778301
 20
72.23831137028
 30
0.0
 11
648.2982940778302
 21
79.13271135834302
 31
0.0
  0
LINE
  5
1D9
330
1F
100
AcDbEntity
  8
LAY-1
  6
CONTINUOUS
 62
     3
100
AcDbLine
 10
654.6491470389201
 20
86.20337506489497
 30
0.0
 11
654.6491470389201
 21
79.30897507682499
 31
0.0
  0
LINE
  5
1DA
330
1F
100
AcDbEntity
  8
LAY-1
  6
CONTINUOUS
 62
     3
100
AcDbLine
 10
667.3508529610801
 20
86.20337506489497
 30
0.0
 11
667.3508529610801
 21
79.30897507682499
 31
0.0
  0
LINE
  5
1DB
330
1F
100
AcDbEntity
  8
LAY-1
  6
CONTINUOUS
 62
     3
100
AcDbLine
 10
557.14914703897
 20
123.09446190109
 30
0.0
 11
569.85085296113
 21
123.09446190109
 31
0.0
  0
LINE
  5
1DC
330
1F
100
AcDbEntity
  8
LAY-1
  6
CONTINUOUS
 62
     3
100
AcDbLine
 10
557.1491470389741
 20
116.7305008704068
 30
0.0
 11
569.8508529611686
 21
116.730500870396
 31
0.0
  0
LINE
  5
1DD
330
1F
100
AcDbEntity
  8
LAY-1
  6
CONTINUOUS
 62
     3
100
AcDbLine
 10
569.85085296113
 20
123.09446190109
 30
0.0
 11
576.2017059222301
 21
115.3162873080301
 31
0.0
  0
LINE
  5
1DE
330
1F
100
AcDbEntity
  8
LAY-1
  6
CONTINUOUS
 62
     3
100
AcDbLine
 10
569.8508529611667
 20
116.7305008703983
 30
0.0
 11
576.2017059222145
 21
108.9523262773623
 31
0.0
  0
LINE
  5
1DF
330
1F
100
AcDbEntity
  8
LAY-1
  6
CONTINUOUS
 62
     3
100
AcDbLine
 10
569.8508529611436
 20
101.1741516843179
 30
0.0
 11
576.2017059222145
 21
108.9523262773623
 31
0.0
  0
LINE
  5
1E0
330
1F
100
AcDbEntity
  8
LAY-1
  6
CONTINUOUS
 62
     3
100
AcDbLine
 10
569.8508529611458
 20
101.1741516843188
 30
0.0
 11
557.1491470389773
 21
101.1741516842875
 31
0.0
  0
LINE
  5
1E1
330
1F
100
AcDbEntity
  8
LAY-1
  6
CONTINUOUS
 62
     3
100
AcDbLine
 10
550.7982940778654
 20
108.9523262773296
 30
0.0
 11
557.1491470389773
 21
101.1741516842875
 31
0.0
  0
LINE
  5
1E2
330
1F
100
AcDbEntity
  8
LAY-1
  6
CONTINUOUS
 62
     3
100
AcDbLine
 10
557.149147038978
 20
116.7305008704083
 30
0.0
 11
550.7982940778674
 21
108.9523262773271
 31
0.0
  0
LINE
  5
1E3
330
1F
100
AcDbEntity
  8
LAY-1
  6
CONTINUOUS
 62
     3
100
AcDbLine
 10
550.79829407787
 20
115.3162873080301
 30
0.0
 11
550.79829407787
 21
108.95232627733
 31
0.0
  0
LINE
  5
1E4
330
1F
100
AcDbEntity
  8
LAY-1
  6
CONTINUOUS
 62
     3
100
AcDbLine
 10
557.14914703897
 20
123.09446190109
 30
0.0
 11
550.79829407787
 21
115.3162873080301
 31
0.0
  0
LINE
  5
1E5
330
1F
100
AcDbEntity
  8
LAY-1
  6
CONTINUOUS
 62
     3
100
AcDbLine
 10
557.14914703897
 20
123.09446190109
 30
0.0
 11
557.14914703897
 21
116.73050087041
 31
0.0
  0
LINE
  5
1E6
330
1F
100
AcDbEntity
  8
LAY-1
  6
CONTINUOUS
 62
     3
100
AcDbLine
 10
569.85085296113
 20
123.09446190109
 30
0.0
 11
569.85085296113
 21
116.73050087041
 31
0.0
  0
LINE
  5
1E7
330
1F
100
AcDbEntity
  8
LAY-1
  6
CONTINUOUS
 62
     3
100
AcDbLine
 10
576.2017059222301
 20
115.3162873080301
 30
0.0
 11
576.2017059222301
 21
108.95232627733
 31
0.0
  0
POLYLINE
  5
1E8
330
1F
100
AcDbEntity
  8
LAY-1
  6
CONTINUOUS
 62
     3
100
AcDb2dPolyline
 66
     1
 10
0.0
 20
0.0
 30
0.0
 70
   128
  0
VERTEX
  5
1E9
330
1E8
100
AcDbEntity
  8
LAY-1
  6
CONTINUOUS
 62
     3
100
AcDbVertex
100
AcDb2dVertex
 10
574.5000000000489
 20
108.9523262773543
 30
0.0
  0
VERTEX
  5
1EA
330
1E8
100
AcDbEntity
  8
LAY-1
  6
CONTINUOUS
 62
     3
100
AcDbVertex
100
AcDb2dVertex
 10
574.4978796453519
 20
109.1050405652191
 30
0.0
  0
VERTEX
  5
1EB
330
1E8
100
AcDbEntity
  8
LAY-1
  6
CONTINUOUS
 62
     3
100
AcDbVertex
100
AcDb2dVertex
 10
574.4915193986974
 20
109.2576959788187
 30
0.0
  0
VERTEX
  5
1EC
330
1E8
100
AcDbEntity
  8
LAY-1
  6
CONTINUOUS
 62
     3
100
AcDbVertex
100
AcDb2dVertex
 10
574.4809217120815
 20
109.4102336665855
 30
0.0
  0
VERTEX
  5
1ED
330
1E8
100
AcDbEntity
  8
LAY-1
  6
CONTINUOUS
 62
     3
100
AcDbVertex
100
AcDb2dVertex
 10
574.4660906711142
 20
109.562594822337
 30
0.0
  0
VERTEX
  5
1EE
330
1E8
100
AcDbEntity
  8
LAY-1
  6
CONTINUOUS
 62
     3
100
AcDbVertex
100
AcDb2dVertex
 10
574.4470319934443
 20
109.7147207079476
 30
0.0
  0
VERTEX
  5
1EF
330
1E8
100
AcDbEntity
  8
LAY-1
  6
CONTINUOUS
 62
     3
100
AcDbVertex
100
AcDb2dVertex
 10
574.4237530265548
 20
109.8665526759922
 30
0.0
  0
VERTEX
  5
1F0
330
1E8
100
AcDbEntity
  8
LAY-1
  6
CONTINUOUS
 62
     3
100
AcDbVertex
100
AcDb2dVertex
 10
574.3962627449301
 20
110.0180321923572
 30
0.0
  0
VERTEX
  5
1F1
330
1E8
100
AcDbEntity
  8
LAY-1
  6
CONTINUOUS
 62
     3
100
AcDbVertex
100
AcDb2dVertex
 10
574.3645717465978
 20
110.1691008588051
 30
0.0
  0
VERTEX
  5
1F2
330
1E8
100
AcDbEntity
  8
LAY-1
  6
CONTINUOUS
 62
     3
100
AcDbVertex
100
AcDb2dVertex
 10
574.3286922490403
 20
110.3197004354896
 30
0.0
  0
VERTEX
  5
1F3
330
1E8
100
AcDbEntity
  8
LAY-1
  6
CONTINUOUS
 62
     3
100
AcDbVertex
100
AcDb2dVertex
 10
574.2886380844875
 20
110.4697728634071
 30
0.0
  0
VERTEX
  5
1F4
330
1E8
100
AcDbEntity
  8
LAY-1
  6
CONTINUOUS
 62
     3
100
AcDbVertex
100
AcDb2dVertex
 10
574.244424694582
 20
110.6192602867797
 30
0.0
  0
VERTEX
  5
1F5
330
1E8
100
AcDbEntity
  8
LAY-1
  6
CONTINUOUS
 62
     3
100
AcDbVertex
100
AcDb2dVertex
 10
574.196069124427
 20
110.76810507536
 30
0.0
  0
VERTEX
  5
1F6
330
1E8
100
AcDbEntity
  8
LAY-1
  6
CONTINUOUS
 62
     3
100
AcDbVertex
100
AcDb2dVertex
 10
574.1435900160161
 20
110.916249846649
 30
0.0
  0
VERTEX
  5
1F7
330
1E8
100
AcDbEntity
  8
LAY-1
  6
CONTINUOUS
 62
     3
100
AcDbVertex
100
AcDb2dVertex
 10
574.0870076010438
 20
111.0636374880168
 30
0.0
  0
VERTEX
  5
1F8
330
1E8
100
AcDbEntity
  8
LAY-1
  6
CONTINUOUS
 62
     3
100
AcDbVertex
100
AcDb2dVertex
 10
574.0263436931084
 20
111.2102111787224
 30
0.0
  0
VERTEX
  5
1F9
330
1E8
100
AcDbEntity
  8
LAY-1
  6
CONTINUOUS
 62
     3
100
AcDbVertex
100
AcDb2dVertex
 10
573.9616216793013
 20
111.3559144118177
 30
0.0
  0
VERTEX
  5
1FA
330
1E8
100
AcDbEntity
  8
LAY-1
  6
CONTINUOUS
 62
     3
100
AcDbVertex
100
AcDb2dVertex
 10
573.8928665111907
 20
111.5006910159327
 30
0.0
  0
VERTEX
  5
1FB
330
1E8
100
AcDbEntity
  8
LAY-1
  6
CONTINUOUS
 62
     3
100
AcDbVertex
100
AcDb2dVertex
 10
573.8201046952028
 20
111.6444851769307
 30
0.0
  0
VERTEX
  5
1FC
330
1E8
100
AcDbEntity
  8
LAY-1
  6
CONTINUOUS
 62
     3
100
AcDbVertex
100
AcDb2dVertex
 10
573.7433642824028
 20
111.7872414594253
 30
0.0
  0
VERTEX
  5
1FD
330
1E8
100
AcDbEntity
  8
LAY-1
  6
CONTINUOUS
 62
     3
100
AcDbVertex
100
AcDb2dVertex
 10
573.6626748576806
 20
111.9289048281522
 30
0.0
  0
VERTEX
  5
1FE
330
1E8
100
AcDbEntity
  8
LAY-1
  6
CONTINUOUS
 62
     3
100
AcDbVertex
100
AcDb2dVertex
 10
573.5780675283454
 20
112.069420669186
 30
0.0
  0
VERTEX
  5
1FF
330
1E8
100
AcDbEntity
  8
LAY-1
  6
CONTINUOUS
 62
     3
100
AcDbVertex
100
AcDb2dVertex
 10
573.4895749121333
 20
112.2087348109951
 30
0.0
  0
VERTEX
  5
200
330
1E8
100
AcDbEntity
  8
LAY-1
  6
CONTINUOUS
 62
     3
100
AcDbVertex
100
AcDb2dVertex
 10
573.3972311246323
 20
112.346793545326
 30
0.0
  0
VERTEX
  5
201
330
1E8
100
AcDbEntity
  8
LAY-1
  6
CONTINUOUS
 62
     3
100
AcDbVertex
100
AcDb2dVertex
 10
573.3010717661306
 20
112.4835436479085
 30
0.0
  0
VERTEX
  5
202
330
1E8
100
AcDbEntity
  8
LAY-1
  6
CONTINUOUS
 62
     3
100
AcDbVertex
100
AcDb2dVertex
 10
573.2011339078911
 20
112.6189323989748
 30
0.0
  0
VERTEX
  5
203
330
1E8
100
AcDbEntity
  8
LAY-1
  6
CONTINUOUS
 62
     3
100
AcDbVertex
100
AcDb2dVertex
 10
573.0974560778603
 20
112.7529076035842
 30
0.0
  0
VERTEX
  5
204
330
1E8
100
AcDbEntity
  8
LAY-1
  6
CONTINUOUS
 62
     3
100
AcDbVertex
100
AcDb2dVertex
 10
572.9900782458159
 20
112.8854176117449
 30
0.0
  0
VERTEX
  5
205
330
1E8
100
AcDbEntity
  8
LAY-1
  6
CONTINUOUS
 62
     3
100
AcDbVertex
100
AcDb2dVertex
 10
572.8790418079557
 20
113.0164113383264
 30
0.0
  0
VERTEX
  5
206
330
1E8
100
AcDbEntity
  8
LAY-1
  6
CONTINUOUS
 62
     3
100
AcDbVertex
100
AcDb2dVertex
 10
572.7643895709405
 20
113.1458382827536
 30
0.0
  0
VERTEX
  5
207
330
1E8
100
AcDbEntity
  8
LAY-1
  6
CONTINUOUS
 62
     3
100
AcDbVertex
100
AcDb2dVertex
 10
572.6461657353898
 20
113.2736485484756
 30
0.0
  0
VERTEX
  5
208
330
1E8
100
AcDbEntity
  8
LAY-1
  6
CONTINUOUS
 62
     3
100
AcDbVertex
100
AcDb2dVertex
 10
572.5244158788431
 20
113.3997928622018
 30
0.0
  0
VERTEX
  5
209
330
1E8
100
AcDbEntity
  8
LAY-1
  6
CONTINUOUS
 62
     3
100
AcDbVertex
100
AcDb2dVertex
 10
572.3991869381874
 20
113.5242225928984
 30
0.0
  0
VERTEX
  5
20A
330
1E8
100
AcDbEntity
  8
LAY-1
  6
CONTINUOUS
 62
     3
100
AcDbVertex
100
AcDb2dVertex
 10
572.2705271915632
 20
113.6468897705351
 30
0.0
  0
VERTEX
  5
20B
330
1E8
100
AcDbEntity
  8
LAY-1
  6
CONTINUOUS
 62
     3
100
AcDbVertex
100
AcDb2dVertex
 10
572.1384862397522
 20
113.7677471045802
 30
0.0
  0
VERTEX
  5
20C
330
1E8
100
AcDbEntity
  8
LAY-1
  6
CONTINUOUS
 62
     3
100
AcDbVertex
100
AcDb2dVertex
 10
572.0031149870547
 20
113.8867480022306
 30
0.0
  0
VERTEX
  5
20D
330
1E8
100
AcDbEntity
  8
LAY-1
  6
CONTINUOUS
 62
     3
100
AcDbVertex
100
AcDb2dVertex
 10
571.8644656216653
 20
114.0038465863751
 30
0.0
  0
VERTEX
  5
20E
330
1E8
100
AcDbEntity
  8
LAY-1
  6
CONTINUOUS
 62
     3
100
AcDbVertex
100
AcDb2dVertex
 10
571.7225915955541
 20
114.1189977132804
 30
0.0
  0
VERTEX
  5
20F
330
1E8
100
AcDbEntity
  8
LAY-1
  6
CONTINUOUS
 62
     3
100
AcDbVertex
100
AcDb2dVertex
 10
571.5775476038589
 20
114.2321569899952
 30
0.0
  0
VERTEX
  5
210
330
1E8
100
AcDbEntity
  8
LAY-1
  6
CONTINUOUS
 62
     3
100
AcDbVertex
100
AcDb2dVertex
 10
571.4293895637988
 20
114.343280791464
 30
0.0
  0
VERTEX
  5
211
330
1E8
100
AcDbEntity
  8
LAY-1
  6
CONTINUOUS
 62
     3
100
AcDbVertex
100
AcDb2dVertex
 10
571.2781745931192
 20
114.452326277346
 30
0.0
  0
VERTEX
  5
212
330
1E8
100
AcDbEntity
  8
LAY-1
  6
CONTINUOUS
 62
     3
100
AcDbVertex
100
AcDb2dVertex
 10
571.1239609880697
 20
114.559251408531
 30
0.0
  0
VERTEX
  5
213
330
1E8
100
AcDbEntity
  8
LAY-1
  6
CONTINUOUS
 62
     3
100
AcDbVertex
100
AcDb2dVertex
 10
570.9668082009307
 20
114.6640149633451
 30
0.0
  0
VERTEX
  5
214
330
1E8
100
AcDbEntity
  8
LAY-1
  6
CONTINUOUS
 62
     3
100
AcDbVertex
100
AcDb2dVertex
 10
570.8067768170927
 20
114.7665765534436
 30
0.0
  0
VERTEX
  5
215
330
1E8
100
AcDbEntity
  8
LAY-1
  6
CONTINUOUS
 62
     3
100
AcDbVertex
100
AcDb2dVertex
 10
570.6439285317011
 20
114.8668966393815
 30
0.0
  0
VERTEX
  5
216
330
1E8
100
AcDbEntity
  8
LAY-1
  6
CONTINUOUS
 62
     3
100
AcDbVertex
100
AcDb2dVertex
 10
570.4783261258697
 20
114.964936545856
 30
0.0
  0
VERTEX
  5
217
330
1E8
100
AcDbEntity
  8
LAY-1
  6
CONTINUOUS
 62
     3
100
AcDbVertex
100
AcDb2dVertex
 10
570.3100334424782
 20
115.0606584766166
 30
0.0
  0
VERTEX
  5
218
330
1E8
100
AcDbEntity
  8
LAY-1
  6
CONTINUOUS
 62
     3
100
AcDbVertex
100
AcDb2dVertex
 10
570.1391153615599
 20
115.154025529037
 30
0.0
  0
VERTEX
  5
219
330
1E8
100
AcDbEntity
  8
LAY-1
  6
CONTINUOUS
 62
     3
100
AcDbVertex
100
AcDb2dVertex
 10
569.9656377752882
 20
115.2450017083411
 30
0.0
  0
VERTEX
  5
21A
330
1E8
100
AcDbEntity
  8
LAY-1
  6
CONTINUOUS
 62
     3
100
AcDbVertex
100
AcDb2dVertex
 10
569.7896675625751
 20
115.3335519414801
 30
0.0
  0
VERTEX
  5
21B
330
1E8
100
AcDbEntity
  8
LAY-1
  6
CONTINUOUS
 62
     3
100
AcDbVertex
100
AcDb2dVertex
 10
569.6112725632873
 20
115.4196420906533
 30
0.0
  0
VERTEX
  5
21C
330
1E8
100
AcDbEntity
  8
LAY-1
  6
CONTINUOUS
 62
     3
100
AcDbVertex
100
AcDb2dVertex
 10
569.4305215520932
 20
115.5032389664696
 30
0.0
  0
VERTEX
  5
21D
330
1E8
100
AcDbEntity
  8
LAY-1
  6
CONTINUOUS
 62
     3
100
AcDbVertex
100
AcDb2dVertex
 10
569.247484211948
 20
115.5843103407418
 30
0.0
  0
VERTEX
  5
21E
330
1E8
100
AcDbEntity
  8
LAY-1
  6
CONTINUOUS
 62
     3
100
AcDbVertex
100
AcDb2dVertex
 10
569.0622311072307
 20
115.662824958912
 30
0.0
  0
VERTEX
  5
21F
330
1E8
100
AcDbEntity
  8
LAY-1
  6
CONTINUOUS
 62
     3
100
AcDbVertex
100
AcDb2dVertex
 10
568.8748336565396
 20
115.7387525521003
 30
0.0
  0
VERTEX
  5
220
330
1E8
100
AcDbEntity
  8
LAY-1
  6
CONTINUOUS
 62
     3
100
AcDbVertex
100
AcDb2dVertex
 10
568.6853641051596
 20
115.8120638487743
 30
0.0
  0
VERTEX
  5
221
330
1E8
100
AcDbEntity
  8
LAY-1
  6
CONTINUOUS
 62
     3
100
AcDbVertex
100
AcDb2dVertex
 10
568.4938954972088
 20
115.8827305860333
 30
0.0
  0
VERTEX
  5
222
330
1E8
100
AcDbEntity
  8
LAY-1
  6
CONTINUOUS
 62
     3
100
AcDbVertex
100
AcDb2dVertex
 10
568.3005016474808
 20
115.950725520505
 30
0.0
  0
VERTEX
  5
223
330
1E8
100
AcDbEntity
  8
LAY-1
  6
CONTINUOUS
 62
     3
100
AcDbVertex
100
AcDb2dVertex
 10
568.1052571129859
 20
116.0160224388479
 30
0.0
  0
VERTEX
  5
224
330
1E8
100
AcDbEntity
  8
LAY-1
  6
CONTINUOUS
 62
     3
100
AcDbVertex
100
AcDb2dVertex
 10
567.9082371642093
 20
116.078596167857
 30
0.0
  0
VERTEX
  5
225
330
1E8
100
AcDbEntity
  8
LAY-1
  6
CONTINUOUS
 62
     3
100
AcDbVertex
100
AcDb2dVertex
 10
567.7095177560907
 20
116.1384225841685
 30
0.0
  0
VERTEX
  5
226
330
1E8
100
AcDbEntity
  8
LAY-1
  6
CONTINUOUS
 62
     3
100
AcDbVertex
100
AcDb2dVertex
 10
567.5091754987455
 20
116.1954786235601
 30
0.0
  0
VERTEX
  5
227
330
1E8
100
AcDbEntity
  8
LAY-1
  6
CONTINUOUS
 62
     3
100
AcDbVertex
100
AcDb2dVertex
 10
567.3072876279275
 20
116.2497422898426
 30
0.0
  0
VERTEX
  5
228
330
1E8
100
AcDbEntity
  8
LAY-1
  6
CONTINUOUS
 62
     3
100
AcDbVertex
100
AcDb2dVertex
 10
567.103931975254
 20
116.3011926633396
 30
0.0
  0
VERTEX
  5
229
330
1E8
100
AcDbEntity
  8
LAY-1
  6
CONTINUOUS
 62
     3
100
AcDbVertex
100
AcDb2dVertex
 10
566.8991869381998
 20
116.3498099089527
 30
0.0
  0
VERTEX
  5
22A
330
1E8
100
AcDbEntity
  8
LAY-1
  6
CONTINUOUS
 62
     3
100
AcDbVertex
100
AcDb2dVertex
 10
566.6931314498746
 20
116.3955752838084
 30
0.0
  0
VERTEX
  5
22B
330
1E8
100
AcDbEntity
  8
LAY-1
  6
CONTINUOUS
 62
     3
100
AcDbVertex
100
AcDb2dVertex
 10
566.4858449485915
 20
116.4384711444832
 30
0.0
  0
VERTEX
  5
22C
330
1E8
100
AcDbEntity
  8
LAY-1
  6
CONTINUOUS
 62
     3
100
AcDbVertex
100
AcDb2dVertex
 10
566.2774073472423
 20
116.4784809538067
 30
0.0
  0
VERTEX
  5
22D
330
1E8
100
AcDbEntity
  8
LAY-1
  6
CONTINUOUS
 62
     3
100
AcDbVertex
100
AcDb2dVertex
 10
566.0678990024908
 20
116.5155892872354
 30
0.0
  0
VERTEX
  5
22E
330
1E8
100
AcDbEntity
  8
LAY-1
  6
CONTINUOUS
 62
     3
100
AcDbVertex
100
AcDb2dVertex
 10
565.8574006837915
 20
116.5497818388004
 30
0.0
  0
VERTEX
  5
22F
330
1E8
100
AcDbEntity
  8
LAY-1
  6
CONTINUOUS
 62
     3
100
AcDbVertex
100
AcDb2dVertex
 10
565.6459935422533
 20
116.5810454266224
 30
0.0
  0
VERTEX
  5
230
330
1E8
100
AcDbEntity
  8
LAY-1
  6
CONTINUOUS
 62
     3
100
AcDbVertex
100
AcDb2dVertex
 10
565.4337590793539
 20
116.6093679979929
 30
0.0
  0
VERTEX
  5
231
330
1E8
100
AcDbEntity
  8
LAY-1
  6
CONTINUOUS
 62
     3
100
AcDbVertex
100
AcDb2dVertex
 10
565.2207791155183
 20
116.6347386340217
 30
0.0
  0
VERTEX
  5
232
330
1E8
100
AcDbEntity
  8
LAY-1
  6
CONTINUOUS
 62
     3
100
AcDbVertex
100
AcDb2dVertex
 10
565.0071357585773
 20
116.6571475538456
 30
0.0
  0
VERTEX
  5
233
330
1E8
100
AcDbEntity
  8
LAY-1
  6
CONTINUOUS
 62
     3
100
AcDbVertex
100
AcDb2dVertex
 10
564.7929113721119
 20
116.6765861183996
 30
0.0
  0
VERTEX
  5
234
330
1E8
100
AcDbEntity
  8
LAY-1
  6
CONTINUOUS
 62
     3
100
AcDbVertex
100
AcDb2dVertex
 10
564.5781885437008
 20
116.6930468337467
 30
0.0
  0
VERTEX
  5
235
330
1E8
100
AcDbEntity
  8
LAY-1
  6
CONTINUOUS
 62
     3
100
AcDbVertex
100
AcDb2dVertex
 10
564.3630500530818
 20
116.706523353968
 30
0.0
  0
VERTEX
  5
236
330
1E8
100
AcDbEntity
  8
LAY-1
  6
CONTINUOUS
 62
     3
100
AcDbVertex
100
AcDb2dVertex
 10
564.1475788402383
 20
116.7170104836083
 30
0.0
  0
VERTEX
  5
237
330
1E8
100
AcDbEntity
  8
LAY-1
  6
CONTINUOUS
 62
     3
100
AcDbVertex
100
AcDb2dVertex
 10
563.9318579734248
 20
116.7245041796796
 30
0.0
  0
VERTEX
  5
238
330
1E8
100
AcDbEntity
  8
LAY-1
  6
CONTINUOUS
 62
     3
100
AcDbVertex
100
AcDb2dVertex
 10
563.7159706171419
 20
116.7290015532195
 30
0.0
  0
VERTEX
  5
239
330
1E8
100
AcDbEntity
  8
LAY-1
  6
CONTINUOUS
 62
     3
100
AcDbVertex
100
AcDb2dVertex
 10
563.5000000000747
 20
116.7305008704046
 30
0.0
  0
VERTEX
  5
23A
330
1E8
100
AcDbEntity
  8
LAY-1
  6
CONTINUOUS
 62
     3
100
AcDbVertex
100
AcDb2dVertex
 10
563.2840293830075
 20
116.7290015532198
 30
0.0
  0
VERTEX
  5
23B
330
1E8
100
AcDbEntity
  8
LAY-1
  6
CONTINUOUS
 62
     3
100
AcDbVertex
100
AcDb2dVertex
 10
563.0681420267246
 20
116.7245041796804
 30
0.0
  0
VERTEX
  5
23C
330
1E8
100
AcDbEntity
  8
LAY-1
  6
CONTINUOUS
 62
     3
100
AcDbVertex
100
AcDb2dVertex
 10
562.852421159911
 20
116.7170104836094
 30
0.0
  0
VERTEX
  5
23D
330
1E8
100
AcDbEntity
  8
LAY-1
  6
CONTINUOUS
 62
     3
100
AcDbVertex
100
AcDb2dVertex
 10
562.6369499470675
 20
116.7065233539694
 30
0.0
  0
VERTEX
  5
23E
330
1E8
100
AcDbEntity
  8
LAY-1
  6
CONTINUOUS
 62
     3
100
AcDbVertex
100
AcDb2dVertex
 10
562.4218114564483
 20
116.6930468337485
 30
0.0
  0
VERTEX
  5
23F
330
1E8
100
AcDbEntity
  8
LAY-1
  6
CONTINUOUS
 62
     3
100
AcDbVertex
100
AcDb2dVertex
 10
562.2070886280369
 20
116.6765861184017
 30
0.0
  0
VERTEX
  5
240
330
1E8
100
AcDbEntity
  8
LAY-1
  6
CONTINUOUS
 62
     3
100
AcDbVertex
100
AcDb2dVertex
 10
561.9928642415712
 20
116.6571475538482
 30
0.0
  0
VERTEX
  5
241
330
1E8
100
AcDbEntity
  8
LAY-1
  6
CONTINUOUS
 62
     3
100
AcDbVertex
100
AcDb2dVertex
 10
561.7792208846299
 20
116.6347386340246
 30
0.0
  0
VERTEX
  5
242
330
1E8
100
AcDbEntity
  8
LAY-1
  6
CONTINUOUS
 62
     3
100
AcDbVertex
100
AcDb2dVertex
 10
561.5662409207943
 20
116.6093679979961
 30
0.0
  0
VERTEX
  5
243
330
1E8
100
AcDbEntity
  8
LAY-1
  6
CONTINUOUS
 62
     3
100
AcDbVertex
100
AcDb2dVertex
 10
561.3540064578942
 20
116.5810454266258
 30
0.0
  0
VERTEX
  5
244
330
1E8
100
AcDbEntity
  8
LAY-1
  6
CONTINUOUS
 62
     3
100
AcDbVertex
100
AcDb2dVertex
 10
561.1425993163558
 20
116.5497818388042
 30
0.0
  0
VERTEX
  5
245
330
1E8
100
AcDbEntity
  8
LAY-1
  6
CONTINUOUS
 62
     3
100
AcDbVertex
100
AcDb2dVertex
 10
560.932100997656
 20
116.5155892872395
 30
0.0
  0
VERTEX
  5
246
330
1E8
100
AcDbEntity
  8
LAY-1
  6
CONTINUOUS
 62
     3
100
AcDbVertex
100
AcDb2dVertex
 10
560.7225926529037
 20
116.4784809538111
 30
0.0
  0
VERTEX
  5
247
330
1E8
100
AcDbEntity
  8
LAY-1
  6
CONTINUOUS
 62
     3
100
AcDbVertex
100
AcDb2dVertex
 10
560.5141550515543
 20
116.438471144488
 30
0.0
  0
VERTEX
  5
248
330
1E8
100
AcDbEntity
  8
LAY-1
  6
CONTINUOUS
 62
     3
100
AcDbVertex
100
AcDb2dVertex
 10
560.3068685502703
 20
116.3955752838133
 30
0.0
  0
VERTEX
  5
249
330
1E8
100
AcDbEntity
  8
LAY-1
  6
CONTINUOUS
 62
     3
100
AcDbVertex
100
AcDb2dVertex
 10
560.1008130619448
 20
116.3498099089581
 30
0.0
  0
VERTEX
  5
24A
330
1E8
100
AcDbEntity
  8
LAY-1
  6
CONTINUOUS
 62
     3
100
AcDbVertex
100
AcDb2dVertex
 10
559.8960680248902
 20
116.3011926633452
 30
0.0
  0
VERTEX
  5
24B
330
1E8
100
AcDbEntity
  8
LAY-1
  6
CONTINUOUS
 62
     3
100
AcDbVertex
100
AcDb2dVertex
 10
559.6927123722157
 20
116.2497422898483
 30
0.0
  0
VERTEX
  5
24C
330
1E8
100
AcDbEntity
  8
LAY-1
  6
CONTINUOUS
 62
     3
100
AcDbVertex
100
AcDb2dVertex
 10
559.490824501397
 20
116.1954786235661
 30
0.0
  0
VERTEX
  5
24D
330
1E8
100
AcDbEntity
  8
LAY-1
  6
CONTINUOUS
 62
     3
100
AcDbVertex
100
AcDb2dVertex
 10
559.2904822440512
 20
116.1384225841746
 30
0.0
  0
VERTEX
  5
24E
330
1E8
100
AcDbEntity
  8
LAY-1
  6
CONTINUOUS
 62
     3
100
AcDbVertex
100
AcDb2dVertex
 10
559.0917628359322
 20
116.0785961678632
 30
0.0
  0
VERTEX
  5
24F
330
1E8
100
AcDbEntity
  8
LAY-1
  6
CONTINUOUS
 62
     3
100
AcDbVertex
100
AcDb2dVertex
 10
558.8947428871544
 20
116.0160224388544
 30
0.0
  0
VERTEX
  5
250
330
1E8
100
AcDbEntity
  8
LAY-1
  6
CONTINUOUS
 62
     3
100
AcDbVertex
100
AcDb2dVertex
 10
558.6994983526589
 20
115.9507255205116
 30
0.0
  0
VERTEX
  5
251
330
1E8
100
AcDbEntity
  8
LAY-1
  6
CONTINUOUS
 62
     3
100
AcDbVertex
100
AcDb2dVertex
 10
558.5061045029302
 20
115.88273058604
 30
0.0
  0
VERTEX
  5
252
330
1E8
100
AcDbEntity
  8
LAY-1
  6
CONTINUOUS
 62
     3
100
AcDbVertex
100
AcDb2dVertex
 10
558.3146358949786
 20
115.812063848781
 30
0.0
  0
VERTEX
  5
253
330
1E8
100
AcDbEntity
  8
LAY-1
  6
CONTINUOUS
 62
     3
100
AcDbVertex
100
AcDb2dVertex
 10
558.1251663435976
 20
115.7387525521073
 30
0.0
  0
VERTEX
  5
254
330
1E8
100
AcDbEntity
  8
LAY-1
  6
CONTINUOUS
 62
     3
100
AcDbVertex
100
AcDb2dVertex
 10
557.9377688929056
 20
115.6628249589189
 30
0.0
  0
VERTEX
  5
255
330
1E8
100
AcDbEntity
  8
LAY-1
  6
CONTINUOUS
 62
     3
100
AcDbVertex
100
AcDb2dVertex
 10
557.7525157881873
 20
115.5843103407486
 30
0.0
  0
VERTEX
  5
256
330
1E8
100
AcDbEntity
  8
LAY-1
  6
CONTINUOUS
 62
     3
100
AcDbVertex
100
AcDb2dVertex
 10
557.5694784480413
 20
115.5032389664764
 30
0.0
  0
VERTEX
  5
257
330
1E8
100
AcDbEntity
  8
LAY-1
  6
CONTINUOUS
 62
     3
100
AcDbVertex
100
AcDb2dVertex
 10
557.3887274368461
 20
115.4196420906602
 30
0.0
  0
VERTEX
  5
258
330
1E8
100
AcDbEntity
  8
LAY-1
  6
CONTINUOUS
 62
     3
100
AcDbVertex
100
AcDb2dVertex
 10
557.2103324375576
 20
115.333551941487
 30
0.0
  0
VERTEX
  5
259
330
1E8
100
AcDbEntity
  8
LAY-1
  6
CONTINUOUS
 62
     3
100
AcDbVertex
100
AcDb2dVertex
 10
557.0343622248434
 20
115.2450017083479
 30
0.0
  0
VERTEX
  5
25A
330
1E8
100
AcDbEntity
  8
LAY-1
  6
CONTINUOUS
 62
     3
100
AcDbVertex
100
AcDb2dVertex
 10
556.860884638571
 20
115.1540255290437
 30
0.0
  0
VERTEX
  5
25B
330
1E8
100
AcDbEntity
  8
LAY-1
  6
CONTINUOUS
 62
     3
100
AcDbVertex
100
AcDb2dVertex
 10
556.6899665576514
 20
115.0606584766233
 30
0.0
  0
VERTEX
  5
25C
330
1E8
100
AcDbEntity
  8
LAY-1
  6
CONTINUOUS
 62
     3
100
AcDbVertex
100
AcDb2dVertex
 10
556.5216738742589
 20
114.9649365458626
 30
0.0
  0
VERTEX
  5
25D
330
1E8
100
AcDbEntity
  8
LAY-1
  6
CONTINUOUS
 62
     3
100
AcDbVertex
100
AcDb2dVertex
 10
556.3560714684264
 20
114.866896639388
 30
0.0
  0
VERTEX
  5
25E
330
1E8
100
AcDbEntity
  8
LAY-1
  6
CONTINUOUS
 62
     3
100
AcDbVertex
100
AcDb2dVertex
 10
556.193223183034
 20
114.7665765534499
 30
0.0
  0
VERTEX
  5
25F
330
1E8
100
AcDbEntity
  8
LAY-1
  6
CONTINUOUS
 62
     3
100
AcDbVertex
100
AcDb2dVertex
 10
556.0331917991953
 20
114.6640149633511
 30
0.0
  0
VERTEX
  5
260
330
1E8
100
AcDbEntity
  8
LAY-1
  6
CONTINUOUS
 62
     3
100
AcDbVertex
100
AcDb2dVertex
 10
555.876039012055
 20
114.5592514085368
 30
0.0
  0
VERTEX
  5
261
330
1E8
100
AcDbEntity
  8
LAY-1
  6
CONTINUOUS
 62
     3
100
AcDbVertex
100
AcDb2dVertex
 10
555.7218254070045
 20
114.4523262773518
 30
0.0
  0
VERTEX
  5
262
330
1E8
100
AcDbEntity
  8
LAY-1
  6
CONTINUOUS
 62
     3
100
AcDbVertex
100
AcDb2dVertex
 10
555.5706104363238
 20
114.3432807914694
 30
0.0
  0
VERTEX
  5
263
330
1E8
100
AcDbEntity
  8
LAY-1
  6
CONTINUOUS
 62
     3
100
AcDbVertex
100
AcDb2dVertex
 10
555.4224523962629
 20
114.2321569900003
 30
0.0
  0
VERTEX
  5
264
330
1E8
100
AcDbEntity
  8
LAY-1
  6
CONTINUOUS
 62
     3
100
AcDbVertex
100
AcDb2dVertex
 10
555.2774084045662
 20
114.1189977132852
 30
0.0
  0
VERTEX
  5
265
330
1E8
100
AcDbEntity
  8
LAY-1
  6
CONTINUOUS
 62
     3
100
AcDbVertex
100
AcDb2dVertex
 10
555.1355343784543
 20
114.0038465863797
 30
0.0
  0
VERTEX
  5
266
330
1E8
100
AcDbEntity
  8
LAY-1
  6
CONTINUOUS
 62
     3
100
AcDbVertex
100
AcDb2dVertex
 10
554.996885013064
 20
113.8867480022347
 30
0.0
  0
VERTEX
  5
267
330
1E8
100
AcDbEntity
  8
LAY-1
  6
CONTINUOUS
 62
     3
100
AcDbVertex
100
AcDb2dVertex
 10
554.8615137603653
 20
113.7677471045838
 30
0.0
  0
VERTEX
  5
268
330
1E8
100
AcDbEntity
  8
LAY-1
  6
CONTINUOUS
 62
     3
100
AcDbVertex
100
AcDb2dVertex
 10
554.7294728085534
 20
113.6468897705384
 30
0.0
  0
VERTEX
  5
269
330
1E8
100
AcDbEntity
  8
LAY-1
  6
CONTINUOUS
 62
     3
100
AcDbVertex
100
AcDb2dVertex
 10
554.6008130619284
 20
113.5242225929012
 30
0.0
  0
VERTEX
  5
26A
330
1E8
100
AcDbEntity
  8
LAY-1
  6
CONTINUOUS
 62
     3
100
AcDbVertex
100
AcDb2dVertex
 10
554.4755841212717
 20
113.3997928622043
 30
0.0
  0
VERTEX
  5
26B
330
1E8
100
AcDbEntity
  8
LAY-1
  6
CONTINUOUS
 62
     3
100
AcDbVertex
100
AcDb2dVertex
 10
554.3538342647239
 20
113.2736485484775
 30
0.0
  0
VERTEX
  5
26C
330
1E8
100
AcDbEntity
  8
LAY-1
  6
CONTINUOUS
 62
     3
100
AcDbVertex
100
AcDb2dVertex
 10
554.2356104291724
 20
113.1458382827552
 30
0.0
  0
VERTEX
  5
26D
330
1E8
100
AcDbEntity
  8
LAY-1
  6
CONTINUOUS
 62
     3
100
AcDbVertex
100
AcDb2dVertex
 10
554.1209581921562
 20
113.0164113383275
 30
0.0
  0
VERTEX
  5
26E
330
1E8
100
AcDbEntity
  8
LAY-1
  6
CONTINUOUS
 62
     3
100
AcDbVertex
100
AcDb2dVertex
 10
554.0099217542951
 20
112.8854176117454
 30
0.0
  0
VERTEX
  5
26F
330
1E8
100
AcDbEntity
  8
LAY-1
  6
CONTINUOUS
 62
     3
100
AcDbVertex
100
AcDb2dVertex
 10
553.9025439222496
 20
112.7529076035841
 30
0.0
  0
VERTEX
  5
270
330
1E8
100
AcDbEntity
  8
LAY-1
  6
CONTINUOUS
 62
     3
100
AcDbVertex
100
AcDb2dVertex
 10
553.7988660922182
 20
112.6189323989742
 30
0.0
  0
VERTEX
  5
271
330
1E8
100
AcDbEntity
  8
LAY-1
  6
CONTINUOUS
 62
     3
100
AcDbVertex
100
AcDb2dVertex
 10
553.6989282339778
 20
112.4835436479073
 30
0.0
  0
VERTEX
  5
272
330
1E8
100
AcDbEntity
  8
LAY-1
  6
CONTINUOUS
 62
     3
100
AcDbVertex
100
AcDb2dVertex
 10
553.6027688754751
 20
112.3467935453243
 30
0.0
  0
VERTEX
  5
273
330
1E8
100
AcDbEntity
  8
LAY-1
  6
CONTINUOUS
 62
     3
100
AcDbVertex
100
AcDb2dVertex
 10
553.5104250879734
 20
112.2087348109929
 30
0.0
  0
VERTEX
  5
274
330
1E8
100
AcDbEntity
  8
LAY-1
  6
CONTINUOUS
 62
     3
100
AcDbVertex
100
AcDb2dVertex
 10
553.4219324717606
 20
112.0694206691831
 30
0.0
  0
VERTEX
  5
275
330
1E8
100
AcDbEntity
  8
LAY-1
  6
CONTINUOUS
 62
     3
100
AcDbVertex
100
AcDb2dVertex
 10
553.3373251424247
 20
111.9289048281486
 30
0.0
  0
VERTEX
  5
276
330
1E8
100
AcDbEntity
  8
LAY-1
  6
CONTINUOUS
 62
     3
100
AcDbVertex
100
AcDb2dVertex
 10
553.2566357177018
 20
111.787241459421
 30
0.0
  0
VERTEX
  5
277
330
1E8
100
AcDbEntity
  8
LAY-1
  6
CONTINUOUS
 62
     3
100
AcDbVertex
100
AcDb2dVertex
 10
553.1798953049012
 20
111.6444851769258
 30
0.0
  0
VERTEX
  5
278
330
1E8
100
AcDbEntity
  8
LAY-1
  6
CONTINUOUS
 62
     3
100
AcDbVertex
100
AcDb2dVertex
 10
553.1071334889125
 20
111.500691015927
 30
0.0
  0
VERTEX
  5
279
330
1E8
100
AcDbEntity
  8
LAY-1
  6
CONTINUOUS
 62
     3
100
AcDbVertex
100
AcDb2dVertex
 10
553.0383783208016
 20
111.3559144118113
 30
0.0
  0
VERTEX
  5
27A
330
1E8
100
AcDbEntity
  8
LAY-1
  6
CONTINUOUS
 62
     3
100
AcDbVertex
100
AcDb2dVertex
 10
552.9736563069939
 20
111.2102111787154
 30
0.0
  0
VERTEX
  5
27B
330
1E8
100
AcDbEntity
  8
LAY-1
  6
CONTINUOUS
 62
     3
100
AcDbVertex
100
AcDb2dVertex
 10
552.9129923990579
 20
111.0636374880091
 30
0.0
  0
VERTEX
  5
27C
330
1E8
100
AcDbEntity
  8
LAY-1
  6
CONTINUOUS
 62
     3
100
AcDbVertex
100
AcDb2dVertex
 10
552.856409984085
 20
110.9162498466405
 30
0.0
  0
VERTEX
  5
27D
330
1E8
100
AcDbEntity
  8
LAY-1
  6
CONTINUOUS
 62
     3
100
AcDbVertex
100
AcDb2dVertex
 10
552.8039308756732
 20
110.7681050753509
 30
0.0
  0
VERTEX
  5
27E
330
1E8
100
AcDbEntity
  8
LAY-1
  6
CONTINUOUS
 62
     3
100
AcDbVertex
100
AcDb2dVertex
 10
552.7555753055182
 20
110.6192602867698
 30
0.0
  0
VERTEX
  5
27F
330
1E8
100
AcDbEntity
  8
LAY-1
  6
CONTINUOUS
 62
     3
100
AcDbVertex
100
AcDb2dVertex
 10
552.7113619156123
 20
110.4697728633965
 30
0.0
  0
VERTEX
  5
280
330
1E8
100
AcDbEntity
  8
LAY-1
  6
CONTINUOUS
 62
     3
100
AcDbVertex
100
AcDb2dVertex
 10
552.6713077510591
 20
110.3197004354784
 30
0.0
  0
VERTEX
  5
281
330
1E8
100
AcDbEntity
  8
LAY-1
  6
CONTINUOUS
 62
     3
100
AcDbVertex
100
AcDb2dVertex
 10
552.6354282535015
 20
110.1691008587931
 30
0.0
  0
VERTEX
  5
282
330
1E8
100
AcDbEntity
  8
LAY-1
  6
CONTINUOUS
 62
     3
100
AcDbVertex
100
AcDb2dVertex
 10
552.6037372551687
 20
110.0180321923443
 30
0.0
  0
VERTEX
  5
283
330
1E8
100
AcDbEntity
  8
LAY-1
  6
CONTINUOUS
 62
     3
100
AcDbVertex
100
AcDb2dVertex
 10
552.5762469735439
 20
109.8665526759787
 30
0.0
  0
VERTEX
  5
284
330
1E8
100
AcDbEntity
  8
LAY-1
  6
CONTINUOUS
 62
     3
100
AcDbVertex
100
AcDb2dVertex
 10
552.5529680066539
 20
109.7147207079333
 30
0.0
  0
VERTEX
  5
285
330
1E8
100
AcDbEntity
  8
LAY-1
  6
CONTINUOUS
 62
     3
100
AcDbVertex
100
AcDb2dVertex
 10
552.5339093289839
 20
109.5625948223221
 30
0.0
  0
VERTEX
  5
286
330
1E8
100
AcDbEntity
  8
LAY-1
  6
CONTINUOUS
 62
     3
100
AcDbVertex
100
AcDb2dVertex
 10
552.5190782880164
 20
109.4102336665698
 30
0.0
  0
VERTEX
  5
287
330
1E8
100
AcDbEntity
  8
LAY-1
  6
CONTINUOUS
 62
     3
100
AcDbVertex
100
AcDb2dVertex
 10
552.5084806014006
 20
109.2576959788023
 30
0.0
  0
VERTEX
  5
288
330
1E8
100
AcDbEntity
  8
LAY-1
  6
CONTINUOUS
 62
     3
100
AcDbVertex
100
AcDb2dVertex
 10
552.5021203547458
 20
109.1050405652018
 30
0.0
  0
VERTEX
  5
289
330
1E8
100
AcDbEntity
  8
LAY-1
  6
CONTINUOUS
 62
     3
100
AcDbVertex
100
AcDb2dVertex
 10
552.5000000000489
 20
108.9523262773364
 30
0.0
  0
VERTEX
  5
28A
330
1E8
100
AcDbEntity
  8
LAY-1
  6
CONTINUOUS
 62
     3
100
AcDbVertex
100
AcDb2dVertex
 10
552.5021203547464
 20
108.799611989471
 30
0.0
  0
VERTEX
  5
28B
330
1E8
100
AcDbEntity
  8
LAY-1
  6
CONTINUOUS
 62
     3
100
AcDbVertex
100
AcDb2dVertex
 10
552.5084806014015
 20
108.6469565758707
 30
0.0
  0
VERTEX
  5
28C
330
1E8
100
AcDbEntity
  8
LAY-1
  6
CONTINUOUS
 62
     3
100
AcDbVertex
100
AcDb2dVertex
 10
552.5190782880176
 20
108.4944188881032
 30
0.0
  0
VERTEX
  5
28D
330
1E8
100
AcDbEntity
  8
LAY-1
  6
CONTINUOUS
 62
     3
100
AcDbVertex
100
AcDb2dVertex
 10
552.5339093289854
 20
108.3420577323509
 30
0.0
  0
VERTEX
  5
28E
330
1E8
100
AcDbEntity
  8
LAY-1
  6
CONTINUOUS
 62
     3
100
AcDbVertex
100
AcDb2dVertex
 10
552.5529680066561
 20
108.1899318467398
 30
0.0
  0
VERTEX
  5
28F
330
1E8
100
AcDbEntity
  8
LAY-1
  6
CONTINUOUS
 62
     3
100
AcDbVertex
100
AcDb2dVertex
 10
552.5762469735464
 20
108.0380998786946
 30
0.0
  0
VERTEX
  5
290
330
1E8
100
AcDbEntity
  8
LAY-1
  6
CONTINUOUS
 62
     3
100
AcDbVertex
100
AcDb2dVertex
 10
552.6037372551715
 20
107.8866203623289
 30
0.0
  0
VERTEX
  5
291
330
1E8
100
AcDbEntity
  8
LAY-1
  6
CONTINUOUS
 62
     3
100
AcDbVertex
100
AcDb2dVertex
 10
552.6354282535046
 20
107.7355516958803
 30
0.0
  0
VERTEX
  5
292
330
1E8
100
AcDbEntity
  8
LAY-1
  6
CONTINUOUS
 62
     3
100
AcDbVertex
100
AcDb2dVertex
 10
552.6713077510627
 20
107.5849521191953
 30
0.0
  0
VERTEX
  5
293
330
1E8
100
AcDbEntity
  8
LAY-1
  6
CONTINUOUS
 62
     3
100
AcDbVertex
100
AcDb2dVertex
 10
552.7113619156164
 20
107.4348796912773
 30
0.0
  0
VERTEX
  5
294
330
1E8
100
AcDbEntity
  8
LAY-1
  6
CONTINUOUS
 62
     3
100
AcDbVertex
100
AcDb2dVertex
 10
552.7555753055227
 20
107.2853922679041
 30
0.0
  0
VERTEX
  5
295
330
1E8
100
AcDbEntity
  8
LAY-1
  6
CONTINUOUS
 62
     3
100
AcDbVertex
100
AcDb2dVertex
 10
552.8039308756784
 20
107.1365474793232
 30
0.0
  0
VERTEX
  5
296
330
1E8
100
AcDbEntity
  8
LAY-1
  6
CONTINUOUS
 62
     3
100
AcDbVertex
100
AcDb2dVertex
 10
552.8564099840904
 20
106.9884027080339
 30
0.0
  0
VERTEX
  5
297
330
1E8
100
AcDbEntity
  8
LAY-1
  6
CONTINUOUS
 62
     3
100
AcDbVertex
100
AcDb2dVertex
 10
552.9129923990635
 20
106.8410150666655
 30
0.0
  0
VERTEX
  5
298
330
1E8
100
AcDbEntity
  8
LAY-1
  6
CONTINUOUS
 62
     3
100
AcDbVertex
100
AcDb2dVertex
 10
552.9736563069998
 20
106.6944413759595
 30
0.0
  0
VERTEX
  5
299
330
1E8
100
AcDbEntity
  8
LAY-1
  6
CONTINUOUS
 62
     3
100
AcDbVertex
100
AcDb2dVertex
 10
553.038378320808
 20
106.5487381428638
 30
0.0
  0
VERTEX
  5
29A
330
1E8
100
AcDbEntity
  8
LAY-1
  6
CONTINUOUS
 62
     3
100
AcDbVertex
100
AcDb2dVertex
 10
553.1071334889193
 20
106.4039615387483
 30
0.0
  0
VERTEX
  5
29B
330
1E8
100
AcDbEntity
  8
LAY-1
  6
CONTINUOUS
 62
     3
100
AcDbVertex
100
AcDb2dVertex
 10
553.1798953049082
 20
106.2601673777499
 30
0.0
  0
VERTEX
  5
29C
330
1E8
100
AcDbEntity
  8
LAY-1
  6
CONTINUOUS
 62
     3
100
AcDbVertex
100
AcDb2dVertex
 10
553.2566357177092
 20
106.1174110952551
 30
0.0
  0
VERTEX
  5
29D
330
1E8
100
AcDbEntity
  8
LAY-1
  6
CONTINUOUS
 62
     3
100
AcDbVertex
100
AcDb2dVertex
 10
553.3373251424324
 20
105.9757477265279
 30
0.0
  0
VERTEX
  5
29E
330
1E8
100
AcDbEntity
  8
LAY-1
  6
CONTINUOUS
 62
     3
100
AcDbVertex
100
AcDb2dVertex
 10
553.4219324717684
 20
105.8352318854937
 30
0.0
  0
VERTEX
  5
29F
330
1E8
100
AcDbEntity
  8
LAY-1
  6
CONTINUOUS
 62
     3
100
AcDbVertex
100
AcDb2dVertex
 10
553.5104250879816
 20
105.6959177436843
 30
0.0
  0
VERTEX
  5
2A0
330
1E8
100
AcDbEntity
  8
LAY-1
  6
CONTINUOUS
 62
     3
100
AcDbVertex
100
AcDb2dVertex
 10
553.6027688754837
 20
105.5578590093532
 30
0.0
  0
VERTEX
  5
2A1
330
1E8
100
AcDbEntity
  8
LAY-1
  6
CONTINUOUS
 62
     3
100
AcDbVertex
100
AcDb2dVertex
 10
553.6989282339866
 20
105.4211089067706
 30
0.0
  0
VERTEX
  5
2A2
330
1E8
100
AcDbEntity
  8
LAY-1
  6
CONTINUOUS
 62
     3
100
AcDbVertex
100
AcDb2dVertex
 10
553.7988660922273
 20
105.2857201557041
 30
0.0
  0
VERTEX
  5
2A3
330
1E8
100
AcDbEntity
  8
LAY-1
  6
CONTINUOUS
 62
     3
100
AcDbVertex
100
AcDb2dVertex
 10
553.902543922259
 20
105.1517449510946
 30
0.0
  0
VERTEX
  5
2A4
330
1E8
100
AcDbEntity
  8
LAY-1
  6
CONTINUOUS
 62
     3
100
AcDbVertex
100
AcDb2dVertex
 10
554.0099217543046
 20
105.0192349429338
 30
0.0
  0
VERTEX
  5
2A5
330
1E8
100
AcDbEntity
  8
LAY-1
  6
CONTINUOUS
 62
     3
100
AcDbVertex
100
AcDb2dVertex
 10
554.1209581921657
 20
104.8882412163521
 30
0.0
  0
VERTEX
  5
2A6
330
1E8
100
AcDbEntity
  8
LAY-1
  6
CONTINUOUS
 62
     3
100
AcDbVertex
100
AcDb2dVertex
 10
554.2356104291821
 20
104.7588142719248
 30
0.0
  0
VERTEX
  5
2A7
330
1E8
100
AcDbEntity
  8
LAY-1
  6
CONTINUOUS
 62
     3
100
AcDbVertex
100
AcDb2dVertex
 10
554.3538342647338
 20
104.6310040062029
 30
0.0
  0
VERTEX
  5
2A8
330
1E8
100
AcDbEntity
  8
LAY-1
  6
CONTINUOUS
 62
     3
100
AcDbVertex
100
AcDb2dVertex
 10
554.4755841212817
 20
104.5048596924767
 30
0.0
  0
VERTEX
  5
2A9
330
1E8
100
AcDbEntity
  8
LAY-1
  6
CONTINUOUS
 62
     3
100
AcDbVertex
100
AcDb2dVertex
 10
554.6008130619387
 20
104.3804299617803
 30
0.0
  0
VERTEX
  5
2AA
330
1E8
100
AcDbEntity
  8
LAY-1
  6
CONTINUOUS
 62
     3
100
AcDbVertex
100
AcDb2dVertex
 10
554.7294728085636
 20
104.2577627841435
 30
0.0
  0
VERTEX
  5
2AB
330
1E8
100
AcDbEntity
  8
LAY-1
  6
CONTINUOUS
 62
     3
100
AcDbVertex
100
AcDb2dVertex
 10
554.8615137603758
 20
104.1369054500985
 30
0.0
  0
VERTEX
  5
2AC
330
1E8
100
AcDbEntity
  8
LAY-1
  6
CONTINUOUS
 62
     3
100
AcDbVertex
100
AcDb2dVertex
 10
554.9968850130746
 20
104.0179045524482
 30
0.0
  0
VERTEX
  5
2AD
330
1E8
100
AcDbEntity
  8
LAY-1
  6
CONTINUOUS
 62
     3
100
AcDbVertex
100
AcDb2dVertex
 10
555.135534378465
 20
103.9008059683039
 30
0.0
  0
VERTEX
  5
2AE
330
1E8
100
AcDbEntity
  8
LAY-1
  6
CONTINUOUS
 62
     3
100
AcDbVertex
100
AcDb2dVertex
 10
555.277408404577
 20
103.7856548413988
 30
0.0
  0
VERTEX
  5
2AF
330
1E8
100
AcDbEntity
  8
LAY-1
  6
CONTINUOUS
 62
     3
100
AcDbVertex
100
AcDb2dVertex
 10
555.4224523962737
 20
103.6724955646843
 30
0.0
  0
VERTEX
  5
2B0
330
1E8
100
AcDbEntity
  8
LAY-1
  6
CONTINUOUS
 62
     3
100
AcDbVertex
100
AcDb2dVertex
 10
555.5706104363346
 20
103.5613717632158
 30
0.0
  0
VERTEX
  5
2B1
330
1E8
100
AcDbEntity
  8
LAY-1
  6
CONTINUOUS
 62
     3
100
AcDbVertex
100
AcDb2dVertex
 10
555.7218254070152
 20
103.4523262773339
 30
0.0
  0
VERTEX
  5
2B2
330
1E8
100
AcDbEntity
  8
LAY-1
  6
CONTINUOUS
 62
     3
100
AcDbVertex
100
AcDb2dVertex
 10
555.8760390120659
 20
103.3454011461494
 30
0.0
  0
VERTEX
  5
2B3
330
1E8
100
AcDbEntity
  8
LAY-1
  6
CONTINUOUS
 62
     3
100
AcDbVertex
100
AcDb2dVertex
 10
556.0331917992061
 20
103.2406375913357
 30
0.0
  0
VERTEX
  5
2B4
330
1E8
100
AcDbEntity
  8
LAY-1
  6
CONTINUOUS
 62
     3
100
AcDbVertex
100
AcDb2dVertex
 10
556.1932231830446
 20
103.1380760012373
 30
0.0
  0
VERTEX
  5
2B5
330
1E8
100
AcDbEntity
  8
LAY-1
  6
CONTINUOUS
 62
     3
100
AcDbVertex
100
AcDb2dVertex
 10
556.3560714684371
 20
103.0377559152998
 30
0.0
  0
VERTEX
  5
2B6
330
1E8
100
AcDbEntity
  8
LAY-1
  6
CONTINUOUS
 62
     3
100
AcDbVertex
100
AcDb2dVertex
 10
556.5216738742697
 20
102.9397160088259
 30
0.0
  0
VERTEX
  5
2B7
330
1E8
100
AcDbEntity
  8
LAY-1
  6
CONTINUOUS
 62
     3
100
AcDbVertex
100
AcDb2dVertex
 10
556.6899665576622
 20
102.8439940780657
 30
0.0
  0
VERTEX
  5
2B8
330
1E8
100
AcDbEntity
  8
LAY-1
  6
CONTINUOUS
 62
     3
100
AcDbVertex
100
AcDb2dVertex
 10
556.8608846385813
 20
102.7506270256457
 30
0.0
  0
VERTEX
  5
2B9
330
1E8
100
AcDbEntity
  8
LAY-1
  6
CONTINUOUS
 62
     3
100
AcDbVertex
100
AcDb2dVertex
 10
557.0343622248538
 20
102.6596508463421
 30
0.0
  0
VERTEX
  5
2BA
330
1E8
100
AcDbEntity
  8
LAY-1
  6
CONTINUOUS
 62
     3
100
AcDbVertex
100
AcDb2dVertex
 10
557.2103324375678
 20
102.5711006132037
 30
0.0
  0
VERTEX
  5
2BB
330
1E8
100
AcDbEntity
  8
LAY-1
  6
CONTINUOUS
 62
     3
100
AcDbVertex
100
AcDb2dVertex
 10
557.3887274368562
 20
102.4850104640311
 30
0.0
  0
VERTEX
  5
2BC
330
1E8
100
AcDbEntity
  8
LAY-1
  6
CONTINUOUS
 62
     3
100
AcDbVertex
100
AcDb2dVertex
 10
557.5694784480512
 20
102.4014135882154
 30
0.0
  0
VERTEX
  5
2BD
330
1E8
100
AcDbEntity
  8
LAY-1
  6
CONTINUOUS
 62
     3
100
AcDbVertex
100
AcDb2dVertex
 10
557.7525157881971
 20
102.3203422139436
 30
0.0
  0
VERTEX
  5
2BE
330
1E8
100
AcDbEntity
  8
LAY-1
  6
CONTINUOUS
 62
     3
100
AcDbVertex
100
AcDb2dVertex
 10
557.9377688929152
 20
102.2418275957741
 30
0.0
  0
VERTEX
  5
2BF
330
1E8
100
AcDbEntity
  8
LAY-1
  6
CONTINUOUS
 62
     3
100
AcDbVertex
100
AcDb2dVertex
 10
558.1251663436068
 20
102.1659000025863
 30
0.0
  0
VERTEX
  5
2C0
330
1E8
100
AcDbEntity
  8
LAY-1
  6
CONTINUOUS
 62
     3
100
AcDbVertex
100
AcDb2dVertex
 10
558.3146358949876
 20
102.0925887059131
 30
0.0
  0
VERTEX
  5
2C1
330
1E8
100
AcDbEntity
  8
LAY-1
  6
CONTINUOUS
 62
     3
100
AcDbVertex
100
AcDb2dVertex
 10
558.5061045029389
 20
102.0219219686547
 30
0.0
  0
VERTEX
  5
2C2
330
1E8
100
AcDbEntity
  8
LAY-1
  6
CONTINUOUS
 62
     3
100
AcDbVertex
100
AcDb2dVertex
 10
558.6994983526675
 20
101.9539270341836
 30
0.0
  0
VERTEX
  5
2C3
330
1E8
100
AcDbEntity
  8
LAY-1
  6
CONTINUOUS
 62
     3
100
AcDbVertex
100
AcDb2dVertex
 10
558.8947428871628
 20
101.8886301158414
 30
0.0
  0
VERTEX
  5
2C4
330
1E8
100
AcDbEntity
  8
LAY-1
  6
CONTINUOUS
 62
     3
100
AcDbVertex
100
AcDb2dVertex
 10
559.0917628359402
 20
101.8260563868331
 30
0.0
  0
VERTEX
  5
2C5
330
1E8
100
AcDbEntity
  8
LAY-1
  6
CONTINUOUS
 62
     3
100
AcDbVertex
100
AcDb2dVertex
 10
559.290482244059
 20
101.7662299705222
 30
0.0
  0
VERTEX
  5
2C6
330
1E8
100
AcDbEntity
  8
LAY-1
  6
CONTINUOUS
 62
     3
100
AcDbVertex
100
AcDb2dVertex
 10
559.4908245014044
 20
101.7091739311313
 30
0.0
  0
VERTEX
  5
2C7
330
1E8
100
AcDbEntity
  8
LAY-1
  6
CONTINUOUS
 62
     3
100
AcDbVertex
100
AcDb2dVertex
 10
559.6927123722229
 20
101.6549102648495
 30
0.0
  0
VERTEX
  5
2C8
330
1E8
100
AcDbEntity
  8
LAY-1
  6
CONTINUOUS
 62
     3
100
AcDbVertex
100
AcDb2dVertex
 10
559.896068024897
 20
101.6034598913534
 30
0.0
  0
VERTEX
  5
2C9
330
1E8
100
AcDbEntity
  8
LAY-1
  6
CONTINUOUS
 62
     3
100
AcDbVertex
100
AcDb2dVertex
 10
560.1008130619513
 20
101.5548426457409
 30
0.0
  0
VERTEX
  5
2CA
330
1E8
100
AcDbEntity
  8
LAY-1
  6
CONTINUOUS
 62
     3
100
AcDbVertex
100
AcDb2dVertex
 10
560.3068685502766
 20
101.5090772708861
 30
0.0
  0
VERTEX
  5
2CB
330
1E8
100
AcDbEntity
  8
LAY-1
  6
CONTINUOUS
 62
     3
100
AcDbVertex
100
AcDb2dVertex
 10
560.51415505156
 20
101.4661814102119
 30
0.0
  0
VERTEX
  5
2CC
330
1E8
100
AcDbEntity
  8
LAY-1
  6
CONTINUOUS
 62
     3
100
AcDbVertex
100
AcDb2dVertex
 10
560.7225926529092
 20
101.4261716008893
 30
0.0
  0
VERTEX
  5
2CD
330
1E8
100
AcDbEntity
  8
LAY-1
  6
CONTINUOUS
 62
     3
100
AcDbVertex
100
AcDb2dVertex
 10
560.9321009976611
 20
101.3890632674615
 30
0.0
  0
VERTEX
  5
2CE
330
1E8
100
AcDbEntity
  8
LAY-1
  6
CONTINUOUS
 62
     3
100
AcDbVertex
100
AcDb2dVertex
 10
561.1425993163605
 20
101.3548707158972
 30
0.0
  0
VERTEX
  5
2CF
330
1E8
100
AcDbEntity
  8
LAY-1
  6
CONTINUOUS
 62
     3
100
AcDbVertex
100
AcDb2dVertex
 10
561.3540064578987
 20
101.3236071280761
 30
0.0
  0
VERTEX
  5
2D0
330
1E8
100
AcDbEntity
  8
LAY-1
  6
CONTINUOUS
 62
     3
100
AcDbVertex
100
AcDb2dVertex
 10
561.5662409207982
 20
101.2952845567062
 30
0.0
  0
VERTEX
  5
2D1
330
1E8
100
AcDbEntity
  8
LAY-1
  6
CONTINUOUS
 62
     3
100
AcDbVertex
100
AcDb2dVertex
 10
561.7792208846334
 20
101.2699139206781
 30
0.0
  0
VERTEX
  5
2D2
330
1E8
100
AcDbEntity
  8
LAY-1
  6
CONTINUOUS
 62
     3
100
AcDbVertex
100
AcDb2dVertex
 10
561.9928642415741
 20
101.2475050008549
 30
0.0
  0
VERTEX
  5
2D3
330
1E8
100
AcDbEntity
  8
LAY-1
  6
CONTINUOUS
 62
     3
100
AcDbVertex
100
AcDb2dVertex
 10
562.2070886280396
 20
101.2280664363019
 30
0.0
  0
VERTEX
  5
2D4
330
1E8
100
AcDbEntity
  8
LAY-1
  6
CONTINUOUS
 62
     3
100
AcDbVertex
100
AcDb2dVertex
 10
562.4218114564505
 20
101.2116057209555
 30
0.0
  0
VERTEX
  5
2D5
330
1E8
100
AcDbEntity
  8
LAY-1
  6
CONTINUOUS
 62
     3
100
AcDbVertex
100
AcDb2dVertex
 10
562.6369499470693
 20
101.1981292007349
 30
0.0
  0
VERTEX
  5
2D6
330
1E8
100
AcDbEntity
  8
LAY-1
  6
CONTINUOUS
 62
     3
100
AcDbVertex
100
AcDb2dVertex
 10
562.8524211599125
 20
101.1876420710954
 30
0.0
  0
VERTEX
  5
2D7
330
1E8
100
AcDbEntity
  8
LAY-1
  6
CONTINUOUS
 62
     3
100
AcDbVertex
100
AcDb2dVertex
 10
563.0681420267256
 20
101.1801483750248
 30
0.0
  0
VERTEX
  5
2D8
330
1E8
100
AcDbEntity
  8
LAY-1
  6
CONTINUOUS
 62
     3
100
AcDbVertex
100
AcDb2dVertex
 10
563.2840293830083
 20
101.1756510014858
 30
0.0
  0
VERTEX
  5
2D9
330
1E8
100
AcDbEntity
  8
LAY-1
  6
CONTINUOUS
 62
     3
100
AcDbVertex
100
AcDb2dVertex
 10
563.5000000000749
 20
101.1741516843013
 30
0.0
  0
VERTEX
  5
2DA
330
1E8
100
AcDbEntity
  8
LAY-1
  6
CONTINUOUS
 62
     3
100
AcDbVertex
100
AcDb2dVertex
 10
563.7159706171416
 20
101.1756510014868
 30
0.0
  0
VERTEX
  5
2DB
330
1E8
100
AcDbEntity
  8
LAY-1
  6
CONTINUOUS
 62
     3
100
AcDbVertex
100
AcDb2dVertex
 10
563.9318579734244
 20
101.180148375027
 30
0.0
  0
VERTEX
  5
2DC
330
1E8
100
AcDbEntity
  8
LAY-1
  6
CONTINUOUS
 62
     3
100
AcDbVertex
100
AcDb2dVertex
 10
564.1475788402374
 20
101.1876420710987
 30
0.0
  0
VERTEX
  5
2DD
330
1E8
100
AcDbEntity
  8
LAY-1
  6
CONTINUOUS
 62
     3
100
AcDbVertex
100
AcDb2dVertex
 10
564.3630500530803
 20
101.1981292007394
 30
0.0
  0
VERTEX
  5
2DE
330
1E8
100
AcDbEntity
  8
LAY-1
  6
CONTINUOUS
 62
     3
100
AcDbVertex
100
AcDb2dVertex
 10
564.578188543699
 20
101.2116057209609
 30
0.0
  0
VERTEX
  5
2DF
330
1E8
100
AcDbEntity
  8
LAY-1
  6
CONTINUOUS
 62
     3
100
AcDbVertex
100
AcDb2dVertex
 10
564.7929113721095
 20
101.2280664363082
 30
0.0
  0
VERTEX
  5
2E0
330
1E8
100
AcDbEntity
  8
LAY-1
  6
CONTINUOUS
 62
     3
100
AcDbVertex
100
AcDb2dVertex
 10
565.0071357585747
 20
101.2475050008624
 30
0.0
  0
VERTEX
  5
2E1
330
1E8
100
AcDbEntity
  8
LAY-1
  6
CONTINUOUS
 62
     3
100
AcDbVertex
100
AcDb2dVertex
 10
565.2207791155153
 20
101.2699139206866
 30
0.0
  0
VERTEX
  5
2E2
330
1E8
100
AcDbEntity
  8
LAY-1
  6
CONTINUOUS
 62
     3
100
AcDbVertex
100
AcDb2dVertex
 10
565.4337590793504
 20
101.2952845567157
 30
0.0
  0
VERTEX
  5
2E3
330
1E8
100
AcDbEntity
  8
LAY-1
  6
CONTINUOUS
 62
     3
100
AcDbVertex
100
AcDb2dVertex
 10
565.6459935422494
 20
101.3236071280865
 30
0.0
  0
VERTEX
  5
2E4
330
1E8
100
AcDbEntity
  8
LAY-1
  6
CONTINUOUS
 62
     3
100
AcDbVertex
100
AcDb2dVertex
 10
565.8574006837871
 20
101.3548707159087
 30
0.0
  0
VERTEX
  5
2E5
330
1E8
100
AcDbEntity
  8
LAY-1
  6
CONTINUOUS
 62
     3
100
AcDbVertex
100
AcDb2dVertex
 10
566.0678990024861
 20
101.389063267474
 30
0.0
  0
VERTEX
  5
2E6
330
1E8
100
AcDbEntity
  8
LAY-1
  6
CONTINUOUS
 62
     3
100
AcDbVertex
100
AcDb2dVertex
 10
566.2774073472375
 20
101.4261716009028
 30
0.0
  0
VERTEX
  5
2E7
330
1E8
100
AcDbEntity
  8
LAY-1
  6
CONTINUOUS
 62
     3
100
AcDbVertex
100
AcDb2dVertex
 10
566.4858449485861
 20
101.4661814102264
 30
0.0
  0
VERTEX
  5
2E8
330
1E8
100
AcDbEntity
  8
LAY-1
  6
CONTINUOUS
 62
     3
100
AcDbVertex
100
AcDb2dVertex
 10
566.6931314498689
 20
101.5090772709015
 30
0.0
  0
VERTEX
  5
2E9
330
1E8
100
AcDbEntity
  8
LAY-1
  6
CONTINUOUS
 62
     3
100
AcDbVertex
100
AcDb2dVertex
 10
566.8991869381939
 20
101.5548426457573
 30
0.0
  0
VERTEX
  5
2EA
330
1E8
100
AcDbEntity
  8
LAY-1
  6
CONTINUOUS
 62
     3
100
AcDbVertex
100
AcDb2dVertex
 10
567.1039319752475
 20
101.6034598913706
 30
0.0
  0
VERTEX
  5
2EB
330
1E8
100
AcDbEntity
  8
LAY-1
  6
CONTINUOUS
 62
     3
100
AcDbVertex
100
AcDb2dVertex
 10
567.3072876279209
 20
101.6549102648677
 30
0.0
  0
VERTEX
  5
2EC
330
1E8
100
AcDbEntity
  8
LAY-1
  6
CONTINUOUS
 62
     3
100
AcDbVertex
100
AcDb2dVertex
 10
567.5091754987386
 20
101.7091739311504
 30
0.0
  0
VERTEX
  5
2ED
330
1E8
100
AcDbEntity
  8
LAY-1
  6
CONTINUOUS
 62
     3
100
AcDbVertex
100
AcDb2dVertex
 10
567.7095177560835
 20
101.7662299705421
 30
0.0
  0
VERTEX
  5
2EE
330
1E8
100
AcDbEntity
  8
LAY-1
  6
CONTINUOUS
 62
     3
100
AcDbVertex
100
AcDb2dVertex
 10
567.9082371642015
 20
101.8260563868538
 30
0.0
  0
VERTEX
  5
2EF
330
1E8
100
AcDbEntity
  8
LAY-1
  6
CONTINUOUS
 62
     3
100
AcDbVertex
100
AcDb2dVertex
 10
568.1052571129782
 20
101.888630115863
 30
0.0
  0
VERTEX
  5
2F0
330
1E8
100
AcDbEntity
  8
LAY-1
  6
CONTINUOUS
 62
     3
100
AcDbVertex
100
AcDb2dVertex
 10
568.3005016474727
 20
101.953927034206
 30
0.0
  0
VERTEX
  5
2F1
330
1E8
100
AcDbEntity
  8
LAY-1
  6
CONTINUOUS
 62
     3
100
AcDbVertex
100
AcDb2dVertex
 10
568.4938954972002
 20
102.0219219686778
 30
0.0
  0
VERTEX
  5
2F2
330
1E8
100
AcDbEntity
  8
LAY-1
  6
CONTINUOUS
 62
     3
100
AcDbVertex
100
AcDb2dVertex
 10
568.6853641051508
 20
102.0925887059369
 30
0.0
  0
VERTEX
  5
2F3
330
1E8
100
AcDbEntity
  8
LAY-1
  6
CONTINUOUS
 62
     3
100
AcDbVertex
100
AcDb2dVertex
 10
568.8748336565308
 20
102.1659000026108
 30
0.0
  0
VERTEX
  5
2F4
330
1E8
100
AcDbEntity
  8
LAY-1
  6
CONTINUOUS
 62
     3
100
AcDbVertex
100
AcDb2dVertex
 10
569.0622311072215
 20
102.2418275957991
 30
0.0
  0
VERTEX
  5
2F5
330
1E8
100
AcDbEntity
  8
LAY-1
  6
CONTINUOUS
 62
     3
100
AcDbVertex
100
AcDb2dVertex
 10
569.2474842119385
 20
102.3203422139694
 30
0.0
  0
VERTEX
  5
2F6
330
1E8
100
AcDbEntity
  8
LAY-1
  6
CONTINUOUS
 62
     3
100
AcDbVertex
100
AcDb2dVertex
 10
569.4305215520836
 20
102.4014135882417
 30
0.0
  0
VERTEX
  5
2F7
330
1E8
100
AcDbEntity
  8
LAY-1
  6
CONTINUOUS
 62
     3
100
AcDbVertex
100
AcDb2dVertex
 10
569.6112725632777
 20
102.485010464058
 30
0.0
  0
VERTEX
  5
2F8
330
1E8
100
AcDbEntity
  8
LAY-1
  6
CONTINUOUS
 62
     3
100
AcDbVertex
100
AcDb2dVertex
 10
569.7896675625653
 20
102.5711006132314
 30
0.0
  0
VERTEX
  5
2F9
330
1E8
100
AcDbEntity
  8
LAY-1
  6
CONTINUOUS
 62
     3
100
AcDbVertex
100
AcDb2dVertex
 10
569.9656377752781
 20
102.6596508463702
 30
0.0
  0
VERTEX
  5
2FA
330
1E8
100
AcDbEntity
  8
LAY-1
  6
CONTINUOUS
 62
     3
100
AcDbVertex
100
AcDb2dVertex
 10
570.1391153615498
 20
102.7506270256743
 30
0.0
  0
VERTEX
  5
2FB
330
1E8
100
AcDbEntity
  8
LAY-1
  6
CONTINUOUS
 62
     3
100
AcDbVertex
100
AcDb2dVertex
 10
570.310033442468
 20
102.8439940780947
 30
0.0
  0
VERTEX
  5
2FC
330
1E8
100
AcDbEntity
  8
LAY-1
  6
CONTINUOUS
 62
     3
100
AcDbVertex
100
AcDb2dVertex
 10
570.4783261258594
 20
102.9397160088553
 30
0.0
  0
VERTEX
  5
2FD
330
1E8
100
AcDbEntity
  8
LAY-1
  6
CONTINUOUS
 62
     3
100
AcDbVertex
100
AcDb2dVertex
 10
570.6439285316909
 20
103.0377559153298
 30
0.0
  0
VERTEX
  5
2FE
330
1E8
100
AcDbEntity
  8
LAY-1
  6
CONTINUOUS
 62
     3
100
AcDbVertex
100
AcDb2dVertex
 10
570.8067768170824
 20
103.1380760012676
 30
0.0
  0
VERTEX
  5
2FF
330
1E8
100
AcDbEntity
  8
LAY-1
  6
CONTINUOUS
 62
     3
100
AcDbVertex
100
AcDb2dVertex
 10
570.9668082009202
 20
103.2406375913663
 30
0.0
  0
VERTEX
  5
300
330
1E8
100
AcDbEntity
  8
LAY-1
  6
CONTINUOUS
 62
     3
100
AcDbVertex
100
AcDb2dVertex
 10
571.1239609880593
 20
103.3454011461802
 30
0.0
  0
VERTEX
  5
301
330
1E8
100
AcDbEntity
  8
LAY-1
  6
CONTINUOUS
 62
     3
100
AcDbVertex
100
AcDb2dVertex
 10
571.2781745931086
 20
103.452326277365
 30
0.0
  0
VERTEX
  5
302
330
1E8
100
AcDbEntity
  8
LAY-1
  6
CONTINUOUS
 62
     3
100
AcDbVertex
100
AcDb2dVertex
 10
571.4293895637883
 20
103.5613717632471
 30
0.0
  0
VERTEX
  5
303
330
1E8
100
AcDbEntity
  8
LAY-1
  6
CONTINUOUS
 62
     3
100
AcDbVertex
100
AcDb2dVertex
 10
571.5775476038482
 20
103.6724955647159
 30
0.0
  0
VERTEX
  5
304
330
1E8
100
AcDbEntity
  8
LAY-1
  6
CONTINUOUS
 62
     3
100
AcDbVertex
100
AcDb2dVertex
 10
571.7225915955438
 20
103.7856548414305
 30
0.0
  0
VERTEX
  5
305
330
1E8
100
AcDbEntity
  8
LAY-1
  6
CONTINUOUS
 62
     3
100
AcDbVertex
100
AcDb2dVertex
 10
571.8644656216551
 20
103.9008059683358
 30
0.0
  0
VERTEX
  5
306
330
1E8
100
AcDbEntity
  8
LAY-1
  6
CONTINUOUS
 62
     3
100
AcDbVertex
100
AcDb2dVertex
 10
572.0031149870445
 20
104.0179045524802
 30
0.0
  0
VERTEX
  5
307
330
1E8
100
AcDbEntity
  8
LAY-1
  6
CONTINUOUS
 62
     3
100
AcDbVertex
100
AcDb2dVertex
 10
572.138486239742
 20
104.1369054501306
 30
0.0
  0
VERTEX
  5
308
330
1E8
100
AcDbEntity
  8
LAY-1
  6
CONTINUOUS
 62
     3
100
AcDbVertex
100
AcDb2dVertex
 10
572.2705271915531
 20
104.2577627841757
 30
0.0
  0
VERTEX
  5
309
330
1E8
100
AcDbEntity
  8
LAY-1
  6
CONTINUOUS
 62
     3
100
AcDbVertex
100
AcDb2dVertex
 10
572.3991869381773
 20
104.3804299618123
 30
0.0
  0
VERTEX
  5
30A
330
1E8
100
AcDbEntity
  8
LAY-1
  6
CONTINUOUS
 62
     3
100
AcDbVertex
100
AcDb2dVertex
 10
572.5244158788331
 20
104.5048596925087
 30
0.0
  0
VERTEX
  5
30B
330
1E8
100
AcDbEntity
  8
LAY-1
  6
CONTINUOUS
 62
     3
100
AcDbVertex
100
AcDb2dVertex
 10
572.6461657353801
 20
104.631004006235
 30
0.0
  0
VERTEX
  5
30C
330
1E8
100
AcDbEntity
  8
LAY-1
  6
CONTINUOUS
 62
     3
100
AcDbVertex
100
AcDb2dVertex
 10
572.7643895709308
 20
104.7588142719568
 30
0.0
  0
VERTEX
  5
30D
330
1E8
100
AcDbEntity
  8
LAY-1
  6
CONTINUOUS
 62
     3
100
AcDbVertex
100
AcDb2dVertex
 10
572.8790418079465
 20
104.8882412163839
 30
0.0
  0
VERTEX
  5
30E
330
1E8
100
AcDbEntity
  8
LAY-1
  6
CONTINUOUS
 62
     3
100
AcDbVertex
100
AcDb2dVertex
 10
572.9900782458068
 20
105.0192349429653
 30
0.0
  0
VERTEX
  5
30F
330
1E8
100
AcDbEntity
  8
LAY-1
  6
CONTINUOUS
 62
     3
100
AcDbVertex
100
AcDb2dVertex
 10
573.0974560778515
 20
105.151744951126
 30
0.0
  0
VERTEX
  5
310
330
1E8
100
AcDbEntity
  8
LAY-1
  6
CONTINUOUS
 62
     3
100
AcDbVertex
100
AcDb2dVertex
 10
573.2011339078822
 20
105.2857201557353
 30
0.0
  0
VERTEX
  5
311
330
1E8
100
AcDbEntity
  8
LAY-1
  6
CONTINUOUS
 62
     3
100
AcDbVertex
100
AcDb2dVertex
 10
573.301071766122
 20
105.4211089068015
 30
0.0
  0
VERTEX
  5
312
330
1E8
100
AcDbEntity
  8
LAY-1
  6
CONTINUOUS
 62
     3
100
AcDbVertex
100
AcDb2dVertex
 10
573.3972311246241
 20
105.5578590093838
 30
0.0
  0
VERTEX
  5
313
330
1E8
100
AcDbEntity
  8
LAY-1
  6
CONTINUOUS
 62
     3
100
AcDbVertex
100
AcDb2dVertex
 10
573.4895749121254
 20
105.6959177437147
 30
0.0
  0
VERTEX
  5
314
330
1E8
100
AcDbEntity
  8
LAY-1
  6
CONTINUOUS
 62
     3
100
AcDbVertex
100
AcDb2dVertex
 10
573.5780675283377
 20
105.8352318855238
 30
0.0
  0
VERTEX
  5
315
330
1E8
100
AcDbEntity
  8
LAY-1
  6
CONTINUOUS
 62
     3
100
AcDbVertex
100
AcDb2dVertex
 10
573.6626748576732
 20
105.9757477265575
 30
0.0
  0
VERTEX
  5
316
330
1E8
100
AcDbEntity
  8
LAY-1
  6
CONTINUOUS
 62
     3
100
AcDbVertex
100
AcDb2dVertex
 10
573.7433642823956
 20
106.1174110952843
 30
0.0
  0
VERTEX
  5
317
330
1E8
100
AcDbEntity
  8
LAY-1
  6
CONTINUOUS
 62
     3
100
AcDbVertex
100
AcDb2dVertex
 10
573.8201046951959
 20
106.2601673777788
 30
0.0
  0
VERTEX
  5
318
330
1E8
100
AcDbEntity
  8
LAY-1
  6
CONTINUOUS
 62
     3
100
AcDbVertex
100
AcDb2dVertex
 10
573.892866511184
 20
106.4039615387768
 30
0.0
  0
VERTEX
  5
319
330
1E8
100
AcDbEntity
  8
LAY-1
  6
CONTINUOUS
 62
     3
100
AcDbVertex
100
AcDb2dVertex
 10
573.961621679295
 20
106.5487381428918
 30
0.0
  0
VERTEX
  5
31A
330
1E8
100
AcDbEntity
  8
LAY-1
  6
CONTINUOUS
 62
     3
100
AcDbVertex
100
AcDb2dVertex
 10
574.0263436931025
 20
106.694441375987
 30
0.0
  0
VERTEX
  5
31B
330
1E8
100
AcDbEntity
  8
LAY-1
  6
CONTINUOUS
 62
     3
100
AcDbVertex
100
AcDb2dVertex
 10
574.0870076010382
 20
106.8410150666925
 30
0.0
  0
VERTEX
  5
31C
330
1E8
100
AcDbEntity
  8
LAY-1
  6
CONTINUOUS
 62
     3
100
AcDbVertex
100
AcDb2dVertex
 10
574.1435900160109
 20
106.9884027080603
 30
0.0
  0
VERTEX
  5
31D
330
1E8
100
AcDbEntity
  8
LAY-1
  6
CONTINUOUS
 62
     3
100
AcDbVertex
100
AcDb2dVertex
 10
574.1960691244224
 20
107.1365474793491
 30
0.0
  0
VERTEX
  5
31E
330
1E8
100
AcDbEntity
  8
LAY-1
  6
CONTINUOUS
 62
     3
100
AcDbVertex
100
AcDb2dVertex
 10
574.2444246945774
 20
107.2853922679295
 30
0.0
  0
VERTEX
  5
31F
330
1E8
100
AcDbEntity
  8
LAY-1
  6
CONTINUOUS
 62
     3
100
AcDbVertex
100
AcDb2dVertex
 10
574.2886380844833
 20
107.4348796913021
 30
0.0
  0
VERTEX
  5
320
330
1E8
100
AcDbEntity
  8
LAY-1
  6
CONTINUOUS
 62
     3
100
AcDbVertex
100
AcDb2dVertex
 10
574.3286922490367
 20
107.5849521192194
 30
0.0
  0
VERTEX
  5
321
330
1E8
100
AcDbEntity
  8
LAY-1
  6
CONTINUOUS
 62
     3
100
AcDbVertex
100
AcDb2dVertex
 10
574.3645717465944
 20
107.7355516959039
 30
0.0
  0
VERTEX
  5
322
330
1E8
100
AcDbEntity
  8
LAY-1
  6
CONTINUOUS
 62
     3
100
AcDbVertex
100
AcDb2dVertex
 10
574.3962627449274
 20
107.886620362352
 30
0.0
  0
VERTEX
  5
323
330
1E8
100
AcDbEntity
  8
LAY-1
  6
CONTINUOUS
 62
     3
100
AcDbVertex
100
AcDb2dVertex
 10
574.4237530265522
 20
108.0380998787167
 30
0.0
  0
VERTEX
  5
324
330
1E8
100
AcDbEntity
  8
LAY-1
  6
CONTINUOUS
 62
     3
100
AcDbVertex
100
AcDb2dVertex
 10
574.4470319934422
 20
108.1899318467615
 30
0.0
  0
VERTEX
  5
325
330
1E8
100
AcDbEntity
  8
LAY-1
  6
CONTINUOUS
 62
     3
100
AcDbVertex
100
AcDb2dVertex
 10
574.4660906711126
 20
108.3420577323719
 30
0.0
  0
VERTEX
  5
326
330
1E8
100
AcDbEntity
  8
LAY-1
  6
CONTINUOUS
 62
     3
100
AcDbVertex
100
AcDb2dVertex
 10
574.4809217120803
 20
108.4944188881235
 30
0.0
  0
VERTEX
  5
327
330
1E8
100
AcDbEntity
  8
LAY-1
  6
CONTINUOUS
 62
     3
100
AcDbVertex
100
AcDb2dVertex
 10
574.4915193986965
 20
108.6469565758902
 30
0.0
  0
VERTEX
  5
328
330
1E8
100
AcDbEntity
  8
LAY-1
  6
CONTINUOUS
 62
     3
100
AcDbVertex
100
AcDb2dVertex
 10
574.4978796453514
 20
108.7996119894899
 30
0.0
  0
VERTEX
  5
329
330
1E8
100
AcDbEntity
  8
LAY-1
  6
CONTINUOUS
 62
     3
100
AcDbVertex
100
AcDb2dVertex
 10
574.5000000000489
 20
108.9523262773543
 30
0.0
  0
SEQEND
  5
32A
330
1E8
100
AcDbEntity
  8
LAY-1
  6
CONTINUOUS
 62
     3
  0
LINE
  5
32B
330
1F
100
AcDbEntity
  8
LAY-1
  6
CONTINUOUS
 62
     3
100
AcDbLine
 10
634.8508529610302
 20
123.09446190109
 30
0.0
 11
622.1491470388702
 21
123.09446190109
 31
0.0
  0
LINE
  5
32C
330
1F
100
AcDbEntity
  8
LAY-1
  6
CONTINUOUS
 62
     3
100
AcDbLine
 10
634.8508529610261
 20
116.7305008704068
 30
0.0
 11
622.1491470388316
 21
116.730500870396
 31
0.0
  0
LINE
  5
32D
330
1F
100
AcDbEntity
  8
LAY-1
  6
CONTINUOUS
 62
     3
100
AcDbLine
 10
622.1491470388702
 20
123.09446190109
 30
0.0
 11
615.7982940777702
 21
115.31628730803
 31
0.0
  0
LINE
  5
32E
330
1F
100
AcDbEntity
  8
LAY-1
  6
CONTINUOUS
 62
     3
100
AcDbLine
 10
622.1491470388336
 20
116.7305008703983
 30
0.0
 11
615.7982940777857
 21
108.9523262773623
 31
0.0
  0
LINE
  5
32F
330
1F
100
AcDbEntity
  8
LAY-1
  6
CONTINUOUS
 62
     3
100
AcDbLine
 10
622.1491470388567
 20
101.1741516843178
 30
0.0
 11
615.7982940777857
 21
108.9523262773623
 31
0.0
  0
LINE
  5
330
330
1F
100
AcDbEntity
  8
LAY-1
  6
CONTINUOUS
 62
     3
100
AcDbLine
 10
622.1491470388544
 20
101.1741516843188
 30
0.0
 11
634.8508529610228
 21
101.1741516842874
 31
0.0
  0
LINE
  5
331
330
1F
100
AcDbEntity
  8
LAY-1
  6
CONTINUOUS
 62
     3
100
AcDbLine
 10
641.2017059221348
 20
108.9523262773296
 30
0.0
 11
634.8508529610228
 21
101.1741516842874
 31
0.0
  0
LINE
  5
332
330
1F
100
AcDbEntity
  8
LAY-1
  6
CONTINUOUS
 62
     3
100
AcDbLine
 10
634.8508529610223
 20
116.7305008704083
 30
0.0
 11
641.2017059221329
 21
108.9523262773271
 31
0.0
  0
LINE
  5
333
330
1F
100
AcDbEntity
  8
LAY-1
  6
CONTINUOUS
 62
     3
100
AcDbLine
 10
641.2017059221303
 20
115.31628730803
 30
0.0
 11
641.2017059221303
 21
108.95232627733
 31
0.0
  0
LINE
  5
334
330
1F
100
AcDbEntity
  8
LAY-1
  6
CONTINUOUS
 62
     3
100
AcDbLine
 10
634.8508529610302
 20
123.09446190109
 30
0.0
 11
641.2017059221303
 21
115.31628730803
 31
0.0
  0
LINE
  5
335
330
1F
100
AcDbEntity
  8
LAY-1
  6
CONTINUOUS
 62
     3
100
AcDbLine
 10
634.8508529610302
 20
123.09446190109
 30
0.0
 11
634.8508529610302
 21
116.73050087041
 31
0.0
  0
LINE
  5
336
330
1F
100
AcDbEntity
  8
LAY-1
  6
CONTINUOUS
 62
     3
100
AcDbLine
 10
622.1491470388702
 20
123.09446190109
 30
0.0
 11
622.1491470388702
 21
116.73050087041
 31
0.0
  0
LINE
  5
337
330
1F
100
AcDbEntity
  8
LAY-1
  6
CONTINUOUS
 62
     3
100
AcDbLine
 10
615.7982940777702
 20
115.31628730803
 30
0.0
 11
615.7982940777702
 21
108.95232627733
 31
0.0
  0
POLYLINE
  5
338
330
1F
100
AcDbEntity
  8
LAY-1
  6
CONTINUOUS
 62
     3
100
AcDb2dPolyline
 66
     1
 10
0.0
 20
0.0
 30
0.0
 70
   128
  0
VERTEX
  5
339
330
338
100
AcDbEntity
  8
LAY-1
  6
CONTINUOUS
 62
     3
100
AcDbVertex
100
AcDb2dVertex
 10
617.4999999999513
 20
108.9523262773543
 30
0.0
  0
VERTEX
  5
33A
330
338
100
AcDbEntity
  8
LAY-1
  6
CONTINUOUS
 62
     3
100
AcDbVertex
100
AcDb2dVertex
 10
617.5021203546484
 20
109.105040565219
 30
0.0
  0
VERTEX
  5
33B
330
338
100
AcDbEntity
  8
LAY-1
  6
CONTINUOUS
 62
     3
100
AcDbVertex
100
AcDb2dVertex
 10
617.5084806013028
 20
109.2576959788187
 30
0.0
  0
VERTEX
  5
33C
330
338
100
AcDbEntity
  8
LAY-1
  6
CONTINUOUS
 62
     3
100
AcDbVertex
100
AcDb2dVertex
 10
617.5190782879188
 20
109.4102336665854
 30
0.0
  0
VERTEX
  5
33D
330
338
100
AcDbEntity
  8
LAY-1
  6
CONTINUOUS
 62
     3
100
AcDbVertex
100
AcDb2dVertex
 10
617.533909328886
 20
109.562594822337
 30
0.0
  0
VERTEX
  5
33E
330
338
100
AcDbEntity
  8
LAY-1
  6
CONTINUOUS
 62
     3
100
AcDbVertex
100
AcDb2dVertex
 10
617.552968006556
 20
109.7147207079476
 30
0.0
  0
VERTEX
  5
33F
330
338
100
AcDbEntity
  8
LAY-1
  6
CONTINUOUS
 62
     3
100
AcDbVertex
100
AcDb2dVertex
 10
617.5762469734454
 20
109.8665526759922
 30
0.0
  0
VERTEX
  5
340
330
338
100
AcDbEntity
  8
LAY-1
  6
CONTINUOUS
 62
     3
100
AcDbVertex
100
AcDb2dVertex
 10
617.6037372550701
 20
110.0180321923572
 30
0.0
  0
VERTEX
  5
341
330
338
100
AcDbEntity
  8
LAY-1
  6
CONTINUOUS
 62
     3
100
AcDbVertex
100
AcDb2dVertex
 10
617.6354282534024
 20
110.1691008588051
 30
0.0
  0
VERTEX
  5
342
330
338
100
AcDbEntity
  8
LAY-1
  6
CONTINUOUS
 62
     3
100
AcDbVertex
100
AcDb2dVertex
 10
617.67130775096
 20
110.3197004354896
 30
0.0
  0
VERTEX
  5
343
330
338
100
AcDbEntity
  8
LAY-1
  6
CONTINUOUS
 62
     3
100
AcDbVertex
100
AcDb2dVertex
 10
617.7113619155127
 20
110.4697728634071
 30
0.0
  0
VERTEX
  5
344
330
338
100
AcDbEntity
  8
LAY-1
  6
CONTINUOUS
 62
     3
100
AcDbVertex
100
AcDb2dVertex
 10
617.7555753054182
 20
110.6192602867797
 30
0.0
  0
VERTEX
  5
345
330
338
100
AcDbEntity
  8
LAY-1
  6
CONTINUOUS
 62
     3
100
AcDbVertex
100
AcDb2dVertex
 10
617.8039308755732
 20
110.76810507536
 30
0.0
  0
VERTEX
  5
346
330
338
100
AcDbEntity
  8
LAY-1
  6
CONTINUOUS
 62
     3
100
AcDbVertex
100
AcDb2dVertex
 10
617.8564099839841
 20
110.916249846649
 30
0.0
  0
VERTEX
  5
347
330
338
100
AcDbEntity
  8
LAY-1
  6
CONTINUOUS
 62
     3
100
AcDbVertex
100
AcDb2dVertex
 10
617.9129923989565
 20
111.0636374880168
 30
0.0
  0
VERTEX
  5
348
330
338
100
AcDbEntity
  8
LAY-1
  6
CONTINUOUS
 62
     3
100
AcDbVertex
100
AcDb2dVertex
 10
617.9736563068918
 20
111.2102111787224
 30
0.0
  0
VERTEX
  5
349
330
338
100
AcDbEntity
  8
LAY-1
  6
CONTINUOUS
 62
     3
100
AcDbVertex
100
AcDb2dVertex
 10
618.0383783206989
 20
111.3559144118177
 30
0.0
  0
VERTEX
  5
34A
330
338
100
AcDbEntity
  8
LAY-1
  6
CONTINUOUS
 62
     3
100
AcDbVertex
100
AcDb2dVertex
 10
618.1071334888095
 20
111.5006910159327
 30
0.0
  0
VERTEX
  5
34B
330
338
100
AcDbEntity
  8
LAY-1
  6
CONTINUOUS
 62
     3
100
AcDbVertex
100
AcDb2dVertex
 10
618.1798953047975
 20
111.6444851769307
 30
0.0
  0
VERTEX
  5
34C
330
338
100
AcDbEntity
  8
LAY-1
  6
CONTINUOUS
 62
     3
100
AcDbVertex
100
AcDb2dVertex
 10
618.2566357175974
 20
111.7872414594253
 30
0.0
  0
VERTEX
  5
34D
330
338
100
AcDbEntity
  8
LAY-1
  6
CONTINUOUS
 62
     3
100
AcDbVertex
100
AcDb2dVertex
 10
618.3373251423196
 20
111.9289048281522
 30
0.0
  0
VERTEX
  5
34E
330
338
100
AcDbEntity
  8
LAY-1
  6
CONTINUOUS
 62
     3
100
AcDbVertex
100
AcDb2dVertex
 10
618.4219324716548
 20
112.069420669186
 30
0.0
  0
VERTEX
  5
34F
330
338
100
AcDbEntity
  8
LAY-1
  6
CONTINUOUS
 62
     3
100
AcDbVertex
100
AcDb2dVertex
 10
618.5104250878669
 20
112.2087348109951
 30
0.0
  0
VERTEX
  5
350
330
338
100
AcDbEntity
  8
LAY-1
  6
CONTINUOUS
 62
     3
100
AcDbVertex
100
AcDb2dVertex
 10
618.6027688753679
 20
112.346793545326
 30
0.0
  0
VERTEX
  5
351
330
338
100
AcDbEntity
  8
LAY-1
  6
CONTINUOUS
 62
     3
100
AcDbVertex
100
AcDb2dVertex
 10
618.6989282338697
 20
112.4835436479085
 30
0.0
  0
VERTEX
  5
352
330
338
100
AcDbEntity
  8
LAY-1
  6
CONTINUOUS
 62
     3
100
AcDbVertex
100
AcDb2dVertex
 10
618.7988660921092
 20
112.6189323989748
 30
0.0
  0
VERTEX
  5
353
330
338
100
AcDbEntity
  8
LAY-1
  6
CONTINUOUS
 62
     3
100
AcDbVertex
100
AcDb2dVertex
 10
618.9025439221399
 20
112.7529076035842
 30
0.0
  0
VERTEX
  5
354
330
338
100
AcDbEntity
  8
LAY-1
  6
CONTINUOUS
 62
     3
100
AcDbVertex
100
AcDb2dVertex
 10
619.0099217541843
 20
112.8854176117449
 30
0.0
  0
VERTEX
  5
355
330
338
100
AcDbEntity
  8
LAY-1
  6
CONTINUOUS
 62
     3
100
AcDbVertex
100
AcDb2dVertex
 10
619.1209581920446
 20
113.0164113383263
 30
0.0
  0
VERTEX
  5
356
330
338
100
AcDbEntity
  8
LAY-1
  6
CONTINUOUS
 62
     3
100
AcDbVertex
100
AcDb2dVertex
 10
619.2356104290598
 20
113.1458382827536
 30
0.0
  0
VERTEX
  5
357
330
338
100
AcDbEntity
  8
LAY-1
  6
CONTINUOUS
 62
     3
100
AcDbVertex
100
AcDb2dVertex
 10
619.3538342646104
 20
113.2736485484756
 30
0.0
  0
VERTEX
  5
358
330
338
100
AcDbEntity
  8
LAY-1
  6
CONTINUOUS
 62
     3
100
AcDbVertex
100
AcDb2dVertex
 10
619.4755841211571
 20
113.3997928622018
 30
0.0
  0
VERTEX
  5
359
330
338
100
AcDbEntity
  8
LAY-1
  6
CONTINUOUS
 62
     3
100
AcDbVertex
100
AcDb2dVertex
 10
619.6008130618128
 20
113.5242225928984
 30
0.0
  0
VERTEX
  5
35A
330
338
100
AcDbEntity
  8
LAY-1
  6
CONTINUOUS
 62
     3
100
AcDbVertex
100
AcDb2dVertex
 10
619.729472808437
 20
113.646889770535
 30
0.0
  0
VERTEX
  5
35B
330
338
100
AcDbEntity
  8
LAY-1
  6
CONTINUOUS
 62
     3
100
AcDbVertex
100
AcDb2dVertex
 10
619.861513760248
 20
113.7677471045802
 30
0.0
  0
VERTEX
  5
35C
330
338
100
AcDbEntity
  8
LAY-1
  6
CONTINUOUS
 62
     3
100
AcDbVertex
100
AcDb2dVertex
 10
619.9968850129455
 20
113.8867480022306
 30
0.0
  0
VERTEX
  5
35D
330
338
100
AcDbEntity
  8
LAY-1
  6
CONTINUOUS
 62
     3
100
AcDbVertex
100
AcDb2dVertex
 10
620.1355343783349
 20
114.0038465863751
 30
0.0
  0
VERTEX
  5
35E
330
338
100
AcDbEntity
  8
LAY-1
  6
CONTINUOUS
 62
     3
100
AcDbVertex
100
AcDb2dVertex
 10
620.2774084044461
 20
114.1189977132804
 30
0.0
  0
VERTEX
  5
35F
330
338
100
AcDbEntity
  8
LAY-1
  6
CONTINUOUS
 62
     3
100
AcDbVertex
100
AcDb2dVertex
 10
620.4224523961414
 20
114.2321569899952
 30
0.0
  0
VERTEX
  5
360
330
338
100
AcDbEntity
  8
LAY-1
  6
CONTINUOUS
 62
     3
100
AcDbVertex
100
AcDb2dVertex
 10
620.5706104362014
 20
114.3432807914639
 30
0.0
  0
VERTEX
  5
361
330
338
100
AcDbEntity
  8
LAY-1
  6
CONTINUOUS
 62
     3
100
AcDbVertex
100
AcDb2dVertex
 10
620.7218254068811
 20
114.452326277346
 30
0.0
  0
VERTEX
  5
362
330
338
100
AcDbEntity
  8
LAY-1
  6
CONTINUOUS
 62
     3
100
AcDbVertex
100
AcDb2dVertex
 10
620.8760390119305
 20
114.5592514085309
 30
0.0
  0
VERTEX
  5
363
330
338
100
AcDbEntity
  8
LAY-1
  6
CONTINUOUS
 62
     3
100
AcDbVertex
100
AcDb2dVertex
 10
621.0331917990695
 20
114.664014963345
 30
0.0
  0
VERTEX
  5
364
330
338
100
AcDbEntity
  8
LAY-1
  6
CONTINUOUS
 62
     3
100
AcDbVertex
100
AcDb2dVertex
 10
621.1932231829076
 20
114.7665765534435
 30
0.0
  0
VERTEX
  5
365
330
338
100
AcDbEntity
  8
LAY-1
  6
CONTINUOUS
 62
     3
100
AcDbVertex
100
AcDb2dVertex
 10
621.3560714682991
 20
114.8668966393815
 30
0.0
  0
VERTEX
  5
366
330
338
100
AcDbEntity
  8
LAY-1
  6
CONTINUOUS
 62
     3
100
AcDbVertex
100
AcDb2dVertex
 10
621.5216738741306
 20
114.9649365458559
 30
0.0
  0
VERTEX
  5
367
330
338
100
AcDbEntity
  8
LAY-1
  6
CONTINUOUS
 62
     3
100
AcDbVertex
100
AcDb2dVertex
 10
621.689966557522
 20
115.0606584766166
 30
0.0
  0
VERTEX
  5
368
330
338
100
AcDbEntity
  8
LAY-1
  6
CONTINUOUS
 62
     3
100
AcDbVertex
100
AcDb2dVertex
 10
621.8608846384403
 20
115.154025529037
 30
0.0
  0
VERTEX
  5
369
330
338
100
AcDbEntity
  8
LAY-1
  6
CONTINUOUS
 62
     3
100
AcDbVertex
100
AcDb2dVertex
 10
622.034362224712
 20
115.2450017083411
 30
0.0
  0
VERTEX
  5
36A
330
338
100
AcDbEntity
  8
LAY-1
  6
CONTINUOUS
 62
     3
100
AcDbVertex
100
AcDb2dVertex
 10
622.2103324374251
 20
115.3335519414801
 30
0.0
  0
VERTEX
  5
36B
330
338
100
AcDbEntity
  8
LAY-1
  6
CONTINUOUS
 62
     3
100
AcDbVertex
100
AcDb2dVertex
 10
622.3887274367129
 20
115.4196420906533
 30
0.0
  0
VERTEX
  5
36C
330
338
100
AcDbEntity
  8
LAY-1
  6
CONTINUOUS
 62
     3
100
AcDbVertex
100
AcDb2dVertex
 10
622.569478447907
 20
115.5032389664696
 30
0.0
  0
VERTEX
  5
36D
330
338
100
AcDbEntity
  8
LAY-1
  6
CONTINUOUS
 62
     3
100
AcDbVertex
100
AcDb2dVertex
 10
622.7525157880523
 20
115.5843103407418
 30
0.0
  0
VERTEX
  5
36E
330
338
100
AcDbEntity
  8
LAY-1
  6
CONTINUOUS
 62
     3
100
AcDbVertex
100
AcDb2dVertex
 10
622.9377688927696
 20
115.662824958912
 30
0.0
  0
VERTEX
  5
36F
330
338
100
AcDbEntity
  8
LAY-1
  6
CONTINUOUS
 62
     3
100
AcDbVertex
100
AcDb2dVertex
 10
623.1251663434606
 20
115.7387525521003
 30
0.0
  0
VERTEX
  5
370
330
338
100
AcDbEntity
  8
LAY-1
  6
CONTINUOUS
 62
     3
100
AcDbVertex
100
AcDb2dVertex
 10
623.3146358948406
 20
115.8120638487742
 30
0.0
  0
VERTEX
  5
371
330
338
100
AcDbEntity
  8
LAY-1
  6
CONTINUOUS
 62
     3
100
AcDbVertex
100
AcDb2dVertex
 10
623.5061045027915
 20
115.8827305860333
 30
0.0
  0
VERTEX
  5
372
330
338
100
AcDbEntity
  8
LAY-1
  6
CONTINUOUS
 62
     3
100
AcDbVertex
100
AcDb2dVertex
 10
623.6994983525194
 20
115.950725520505
 30
0.0
  0
VERTEX
  5
373
330
338
100
AcDbEntity
  8
LAY-1
  6
CONTINUOUS
 62
     3
100
AcDbVertex
100
AcDb2dVertex
 10
623.8947428870143
 20
116.0160224388479
 30
0.0
  0
VERTEX
  5
374
330
338
100
AcDbEntity
  8
LAY-1
  6
CONTINUOUS
 62
     3
100
AcDbVertex
100
AcDb2dVertex
 10
624.091762835791
 20
116.078596167857
 30
0.0
  0
VERTEX
  5
375
330
338
100
AcDbEntity
  8
LAY-1
  6
CONTINUOUS
 62
     3
100
AcDbVertex
100
AcDb2dVertex
 10
624.2904822439095
 20
116.1384225841684
 30
0.0
  0
VERTEX
  5
376
330
338
100
AcDbEntity
  8
LAY-1
  6
CONTINUOUS
 62
     3
100
AcDbVertex
100
AcDb2dVertex
 10
624.4908245012547
 20
116.1954786235601
 30
0.0
  0
VERTEX
  5
377
330
338
100
AcDbEntity
  8
LAY-1
  6
CONTINUOUS
 62
     3
100
AcDbVertex
100
AcDb2dVertex
 10
624.6927123720727
 20
116.2497422898426
 30
0.0
  0
VERTEX
  5
378
330
338
100
AcDbEntity
  8
LAY-1
  6
CONTINUOUS
 62
     3
100
AcDbVertex
100
AcDb2dVertex
 10
624.8960680247462
 20
116.3011926633396
 30
0.0
  0
VERTEX
  5
379
330
338
100
AcDbEntity
  8
LAY-1
  6
CONTINUOUS
 62
     3
100
AcDbVertex
100
AcDb2dVertex
 10
625.1008130618004
 20
116.3498099089527
 30
0.0
  0
VERTEX
  5
37A
330
338
100
AcDbEntity
  8
LAY-1
  6
CONTINUOUS
 62
     3
100
AcDbVertex
100
AcDb2dVertex
 10
625.3068685501256
 20
116.3955752838083
 30
0.0
  0
VERTEX
  5
37B
330
338
100
AcDbEntity
  8
LAY-1
  6
CONTINUOUS
 62
     3
100
AcDbVertex
100
AcDb2dVertex
 10
625.5141550514087
 20
116.4384711444832
 30
0.0
  0
VERTEX
  5
37C
330
338
100
AcDbEntity
  8
LAY-1
  6
CONTINUOUS
 62
     3
100
AcDbVertex
100
AcDb2dVertex
 10
625.722592652758
 20
116.4784809538066
 30
0.0
  0
VERTEX
  5
37D
330
338
100
AcDbEntity
  8
LAY-1
  6
CONTINUOUS
 62
     3
100
AcDbVertex
100
AcDb2dVertex
 10
625.9321009975095
 20
116.5155892872353
 30
0.0
  0
VERTEX
  5
37E
330
338
100
AcDbEntity
  8
LAY-1
  6
CONTINUOUS
 62
     3
100
AcDbVertex
100
AcDb2dVertex
 10
626.1425993162087
 20
116.5497818388004
 30
0.0
  0
VERTEX
  5
37F
330
338
100
AcDbEntity
  8
LAY-1
  6
CONTINUOUS
 62
     3
100
AcDbVertex
100
AcDb2dVertex
 10
626.3540064577469
 20
116.5810454266224
 30
0.0
  0
VERTEX
  5
380
330
338
100
AcDbEntity
  8
LAY-1
  6
CONTINUOUS
 62
     3
100
AcDbVertex
100
AcDb2dVertex
 10
626.5662409206464
 20
116.6093679979929
 30
0.0
  0
VERTEX
  5
381
330
338
100
AcDbEntity
  8
LAY-1
  6
CONTINUOUS
 62
     3
100
AcDbVertex
100
AcDb2dVertex
 10
626.7792208844819
 20
116.6347386340217
 30
0.0
  0
VERTEX
  5
382
330
338
100
AcDbEntity
  8
LAY-1
  6
CONTINUOUS
 62
     3
100
AcDbVertex
100
AcDb2dVertex
 10
626.9928642414229
 20
116.6571475538456
 30
0.0
  0
VERTEX
  5
383
330
338
100
AcDbEntity
  8
LAY-1
  6
CONTINUOUS
 62
     3
100
AcDbVertex
100
AcDb2dVertex
 10
627.2070886278883
 20
116.6765861183996
 30
0.0
  0
VERTEX
  5
384
330
338
100
AcDbEntity
  8
LAY-1
  6
CONTINUOUS
 62
     3
100
AcDbVertex
100
AcDb2dVertex
 10
627.4218114562995
 20
116.6930468337467
 30
0.0
  0
VERTEX
  5
385
330
338
100
AcDbEntity
  8
LAY-1
  6
CONTINUOUS
 62
     3
100
AcDbVertex
100
AcDb2dVertex
 10
627.6369499469184
 20
116.706523353968
 30
0.0
  0
VERTEX
  5
386
330
338
100
AcDbEntity
  8
LAY-1
  6
CONTINUOUS
 62
     3
100
AcDbVertex
100
AcDb2dVertex
 10
627.8524211597619
 20
116.7170104836082
 30
0.0
  0
VERTEX
  5
387
330
338
100
AcDbEntity
  8
LAY-1
  6
CONTINUOUS
 62
     3
100
AcDbVertex
100
AcDb2dVertex
 10
628.0681420265754
 20
116.7245041796796
 30
0.0
  0
VERTEX
  5
388
330
338
100
AcDbEntity
  8
LAY-1
  6
CONTINUOUS
 62
     3
100
AcDbVertex
100
AcDb2dVertex
 10
628.2840293828583
 20
116.7290015532195
 30
0.0
  0
VERTEX
  5
389
330
338
100
AcDbEntity
  8
LAY-1
  6
CONTINUOUS
 62
     3
100
AcDbVertex
100
AcDb2dVertex
 10
628.4999999999255
 20
116.7305008704046
 30
0.0
  0
VERTEX
  5
38A
330
338
100
AcDbEntity
  8
LAY-1
  6
CONTINUOUS
 62
     3
100
AcDbVertex
100
AcDb2dVertex
 10
628.7159706169928
 20
116.7290015532197
 30
0.0
  0
VERTEX
  5
38B
330
338
100
AcDbEntity
  8
LAY-1
  6
CONTINUOUS
 62
     3
100
AcDbVertex
100
AcDb2dVertex
 10
628.9318579732757
 20
116.7245041796804
 30
0.0
  0
VERTEX
  5
38C
330
338
100
AcDbEntity
  8
LAY-1
  6
CONTINUOUS
 62
     3
100
AcDbVertex
100
AcDb2dVertex
 10
629.1475788400892
 20
116.7170104836094
 30
0.0
  0
VERTEX
  5
38D
330
338
100
AcDbEntity
  8
LAY-1
  6
CONTINUOUS
 62
     3
100
AcDbVertex
100
AcDb2dVertex
 10
629.3630500529327
 20
116.7065233539694
 30
0.0
  0
VERTEX
  5
38E
330
338
100
AcDbEntity
  8
LAY-1
  6
CONTINUOUS
 62
     3
100
AcDbVertex
100
AcDb2dVertex
 10
629.578188543552
 20
116.6930468337485
 30
0.0
  0
VERTEX
  5
38F
330
338
100
AcDbEntity
  8
LAY-1
  6
CONTINUOUS
 62
     3
100
AcDbVertex
100
AcDb2dVertex
 10
629.7929113719633
 20
116.6765861184016
 30
0.0
  0
VERTEX
  5
390
330
338
100
AcDbEntity
  8
LAY-1
  6
CONTINUOUS
 62
     3
100
AcDbVertex
100
AcDb2dVertex
 10
630.0071357584291
 20
116.6571475538482
 30
0.0
  0
VERTEX
  5
391
330
338
100
AcDbEntity
  8
LAY-1
  6
CONTINUOUS
 62
     3
100
AcDbVertex
100
AcDb2dVertex
 10
630.2207791153703
 20
116.6347386340246
 30
0.0
  0
VERTEX
  5
392
330
338
100
AcDbEntity
  8
LAY-1
  6
CONTINUOUS
 62
     3
100
AcDbVertex
100
AcDb2dVertex
 10
630.433759079206
 20
116.6093679979961
 30
0.0
  0
VERTEX
  5
393
330
338
100
AcDbEntity
  8
LAY-1
  6
CONTINUOUS
 62
     3
100
AcDbVertex
100
AcDb2dVertex
 10
630.645993542106
 20
116.5810454266258
 30
0.0
  0
VERTEX
  5
394
330
338
100
AcDbEntity
  8
LAY-1
  6
CONTINUOUS
 62
     3
100
AcDbVertex
100
AcDb2dVertex
 10
630.8574006836444
 20
116.5497818388042
 30
0.0
  0
VERTEX
  5
395
330
338
100
AcDbEntity
  8
LAY-1
  6
CONTINUOUS
 62
     3
100
AcDbVertex
100
AcDb2dVertex
 10
631.0678990023442
 20
116.5155892872395
 30
0.0
  0
VERTEX
  5
396
330
338
100
AcDbEntity
  8
LAY-1
  6
CONTINUOUS
 62
     3
100
AcDbVertex
100
AcDb2dVertex
 10
631.2774073470965
 20
116.4784809538111
 30
0.0
  0
VERTEX
  5
397
330
338
100
AcDbEntity
  8
LAY-1
  6
CONTINUOUS
 62
     3
100
AcDbVertex
100
AcDb2dVertex
 10
631.4858449484459
 20
116.4384711444879
 30
0.0
  0
VERTEX
  5
398
330
338
100
AcDbEntity
  8
LAY-1
  6
CONTINUOUS
 62
     3
100
AcDbVertex
100
AcDb2dVertex
 10
631.6931314497299
 20
116.3955752838133
 30
0.0
  0
VERTEX
  5
399
330
338
100
AcDbEntity
  8
LAY-1
  6
CONTINUOUS
 62
     3
100
AcDbVertex
100
AcDb2dVertex
 10
631.8991869380554
 20
116.349809908958
 30
0.0
  0
VERTEX
  5
39A
330
338
100
AcDbEntity
  8
LAY-1
  6
CONTINUOUS
 62
     3
100
AcDbVertex
100
AcDb2dVertex
 10
632.1039319751101
 20
116.3011926633451
 30
0.0
  0
VERTEX
  5
39B
330
338
100
AcDbEntity
  8
LAY-1
  6
CONTINUOUS
 62
     3
100
AcDbVertex
100
AcDb2dVertex
 10
632.3072876277845
 20
116.2497422898483
 30
0.0
  0
VERTEX
  5
39C
330
338
100
AcDbEntity
  8
LAY-1
  6
CONTINUOUS
 62
     3
100
AcDbVertex
100
AcDb2dVertex
 10
632.5091754986032
 20
116.1954786235661
 30
0.0
  0
VERTEX
  5
39D
330
338
100
AcDbEntity
  8
LAY-1
  6
CONTINUOUS
 62
     3
100
AcDbVertex
100
AcDb2dVertex
 10
632.709517755949
 20
116.1384225841746
 30
0.0
  0
VERTEX
  5
39E
330
338
100
AcDbEntity
  8
LAY-1
  6
CONTINUOUS
 62
     3
100
AcDbVertex
100
AcDb2dVertex
 10
632.908237164068
 20
116.0785961678632
 30
0.0
  0
VERTEX
  5
39F
330
338
100
AcDbEntity
  8
LAY-1
  6
CONTINUOUS
 62
     3
100
AcDbVertex
100
AcDb2dVertex
 10
633.1052571128458
 20
116.0160224388543
 30
0.0
  0
VERTEX
  5
3A0
330
338
100
AcDbEntity
  8
LAY-1
  6
CONTINUOUS
 62
     3
100
AcDbVertex
100
AcDb2dVertex
 10
633.3005016473413
 20
115.9507255205116
 30
0.0
  0
VERTEX
  5
3A1
330
338
100
AcDbEntity
  8
LAY-1
  6
CONTINUOUS
 62
     3
100
AcDbVertex
100
AcDb2dVertex
 10
633.4938954970701
 20
115.8827305860399
 30
0.0
  0
VERTEX
  5
3A2
330
338
100
AcDbEntity
  8
LAY-1
  6
CONTINUOUS
 62
     3
100
AcDbVertex
100
AcDb2dVertex
 10
633.6853641050217
 20
115.812063848781
 30
0.0
  0
VERTEX
  5
3A3
330
338
100
AcDbEntity
  8
LAY-1
  6
CONTINUOUS
 62
     3
100
AcDbVertex
100
AcDb2dVertex
 10
633.8748336564026
 20
115.7387525521073
 30
0.0
  0
VERTEX
  5
3A4
330
338
100
AcDbEntity
  8
LAY-1
  6
CONTINUOUS
 62
     3
100
AcDbVertex
100
AcDb2dVertex
 10
634.0622311070946
 20
115.6628249589189
 30
0.0
  0
VERTEX
  5
3A5
330
338
100
AcDbEntity
  8
LAY-1
  6
CONTINUOUS
 62
     3
100
AcDbVertex
100
AcDb2dVertex
 10
634.2474842118129
 20
115.5843103407486
 30
0.0
  0
VERTEX
  5
3A6
330
338
100
AcDbEntity
  8
LAY-1
  6
CONTINUOUS
 62
     3
100
AcDbVertex
100
AcDb2dVertex
 10
634.4305215519589
 20
115.5032389664764
 30
0.0
  0
VERTEX
  5
3A7
330
338
100
AcDbEntity
  8
LAY-1
  6
CONTINUOUS
 62
     3
100
AcDbVertex
100
AcDb2dVertex
 10
634.6112725631541
 20
115.4196420906602
 30
0.0
  0
VERTEX
  5
3A8
330
338
100
AcDbEntity
  8
LAY-1
  6
CONTINUOUS
 62
     3
100
AcDbVertex
100
AcDb2dVertex
 10
634.7896675624427
 20
115.333551941487
 30
0.0
  0
VERTEX
  5
3A9
330
338
100
AcDbEntity
  8
LAY-1
  6
CONTINUOUS
 62
     3
100
AcDbVertex
100
AcDb2dVertex
 10
634.9656377751568
 20
115.2450017083479
 30
0.0
  0
VERTEX
  5
3AA
330
338
100
AcDbEntity
  8
LAY-1
  6
CONTINUOUS
 62
     3
100
AcDbVertex
100
AcDb2dVertex
 10
635.1391153614293
 20
115.1540255290437
 30
0.0
  0
VERTEX
  5
3AB
330
338
100
AcDbEntity
  8
LAY-1
  6
CONTINUOUS
 62
     3
100
AcDbVertex
100
AcDb2dVertex
 10
635.3100334423489
 20
115.0606584766233
 30
0.0
  0
VERTEX
  5
3AC
330
338
100
AcDbEntity
  8
LAY-1
  6
CONTINUOUS
 62
     3
100
AcDbVertex
100
AcDb2dVertex
 10
635.4783261257413
 20
114.9649365458626
 30
0.0
  0
VERTEX
  5
3AD
330
338
100
AcDbEntity
  8
LAY-1
  6
CONTINUOUS
 62
     3
100
AcDbVertex
100
AcDb2dVertex
 10
635.6439285315738
 20
114.866896639388
 30
0.0
  0
VERTEX
  5
3AE
330
338
100
AcDbEntity
  8
LAY-1
  6
CONTINUOUS
 62
     3
100
AcDbVertex
100
AcDb2dVertex
 10
635.8067768169662
 20
114.7665765534499
 30
0.0
  0
VERTEX
  5
3AF
330
338
100
AcDbEntity
  8
LAY-1
  6
CONTINUOUS
 62
     3
100
AcDbVertex
100
AcDb2dVertex
 10
635.966808200805
 20
114.6640149633511
 30
0.0
  0
VERTEX
  5
3B0
330
338
100
AcDbEntity
  8
LAY-1
  6
CONTINUOUS
 62
     3
100
AcDbVertex
100
AcDb2dVertex
 10
636.1239609879452
 20
114.5592514085368
 30
0.0
  0
VERTEX
  5
3B1
330
338
100
AcDbEntity
  8
LAY-1
  6
CONTINUOUS
 62
     3
100
AcDbVertex
100
AcDb2dVertex
 10
636.2781745929957
 20
114.4523262773517
 30
0.0
  0
VERTEX
  5
3B2
330
338
100
AcDbEntity
  8
LAY-1
  6
CONTINUOUS
 62
     3
100
AcDbVertex
100
AcDb2dVertex
 10
636.4293895636764
 20
114.3432807914693
 30
0.0
  0
VERTEX
  5
3B3
330
338
100
AcDbEntity
  8
LAY-1
  6
CONTINUOUS
 62
     3
100
AcDbVertex
100
AcDb2dVertex
 10
636.5775476037373
 20
114.2321569900002
 30
0.0
  0
VERTEX
  5
3B4
330
338
100
AcDbEntity
  8
LAY-1
  6
CONTINUOUS
 62
     3
100
AcDbVertex
100
AcDb2dVertex
 10
636.722591595434
 20
114.1189977132852
 30
0.0
  0
VERTEX
  5
3B5
330
338
100
AcDbEntity
  8
LAY-1
  6
CONTINUOUS
 62
     3
100
AcDbVertex
100
AcDb2dVertex
 10
636.864465621546
 20
114.0038465863797
 30
0.0
  0
VERTEX
  5
3B6
330
338
100
AcDbEntity
  8
LAY-1
  6
CONTINUOUS
 62
     3
100
AcDbVertex
100
AcDb2dVertex
 10
637.0031149869362
 20
113.8867480022347
 30
0.0
  0
VERTEX
  5
3B7
330
338
100
AcDbEntity
  8
LAY-1
  6
CONTINUOUS
 62
     3
100
AcDbVertex
100
AcDb2dVertex
 10
637.138486239635
 20
113.7677471045838
 30
0.0
  0
VERTEX
  5
3B8
330
338
100
AcDbEntity
  8
LAY-1
  6
CONTINUOUS
 62
     3
100
AcDbVertex
100
AcDb2dVertex
 10
637.2705271914468
 20
113.6468897705384
 30
0.0
  0
VERTEX
  5
3B9
330
338
100
AcDbEntity
  8
LAY-1
  6
CONTINUOUS
 62
     3
100
AcDbVertex
100
AcDb2dVertex
 10
637.3991869380718
 20
113.5242225929012
 30
0.0
  0
VERTEX
  5
3BA
330
338
100
AcDbEntity
  8
LAY-1
  6
CONTINUOUS
 62
     3
100
AcDbVertex
100
AcDb2dVertex
 10
637.5244158787285
 20
113.3997928622043
 30
0.0
  0
VERTEX
  5
3BB
330
338
100
AcDbEntity
  8
LAY-1
  6
CONTINUOUS
 62
     3
100
AcDbVertex
100
AcDb2dVertex
 10
637.6461657352763
 20
113.2736485484775
 30
0.0
  0
VERTEX
  5
3BC
330
338
100
AcDbEntity
  8
LAY-1
  6
CONTINUOUS
 62
     3
100
AcDbVertex
100
AcDb2dVertex
 10
637.7643895708278
 20
113.1458382827552
 30
0.0
  0
VERTEX
  5
3BD
330
338
100
AcDbEntity
  8
LAY-1
  6
CONTINUOUS
 62
     3
100
AcDbVertex
100
AcDb2dVertex
 10
637.879041807844
 20
113.0164113383275
 30
0.0
  0
VERTEX
  5
3BE
330
338
100
AcDbEntity
  8
LAY-1
  6
CONTINUOUS
 62
     3
100
AcDbVertex
100
AcDb2dVertex
 10
637.9900782457051
 20
112.8854176117454
 30
0.0
  0
VERTEX
  5
3BF
330
338
100
AcDbEntity
  8
LAY-1
  6
CONTINUOUS
 62
     3
100
AcDbVertex
100
AcDb2dVertex
 10
638.0974560777506
 20
112.752907603584
 30
0.0
  0
VERTEX
  5
3C0
330
338
100
AcDbEntity
  8
LAY-1
  6
CONTINUOUS
 62
     3
100
AcDbVertex
100
AcDb2dVertex
 10
638.201133907782
 20
112.6189323989742
 30
0.0
  0
VERTEX
  5
3C1
330
338
100
AcDbEntity
  8
LAY-1
  6
CONTINUOUS
 62
     3
100
AcDbVertex
100
AcDb2dVertex
 10
638.3010717660225
 20
112.4835436479073
 30
0.0
  0
VERTEX
  5
3C2
330
338
100
AcDbEntity
  8
LAY-1
  6
CONTINUOUS
 62
     3
100
AcDbVertex
100
AcDb2dVertex
 10
638.3972311245251
 20
112.3467935453243
 30
0.0
  0
VERTEX
  5
3C3
330
338
100
AcDbEntity
  8
LAY-1
  6
CONTINUOUS
 62
     3
100
AcDbVertex
100
AcDb2dVertex
 10
638.4895749120268
 20
112.2087348109929
 30
0.0
  0
VERTEX
  5
3C4
330
338
100
AcDbEntity
  8
LAY-1
  6
CONTINUOUS
 62
     3
100
AcDbVertex
100
AcDb2dVertex
 10
638.5780675282397
 20
112.069420669183
 30
0.0
  0
VERTEX
  5
3C5
330
338
100
AcDbEntity
  8
LAY-1
  6
CONTINUOUS
 62
     3
100
AcDbVertex
100
AcDb2dVertex
 10
638.6626748575756
 20
111.9289048281486
 30
0.0
  0
VERTEX
  5
3C6
330
338
100
AcDbEntity
  8
LAY-1
  6
CONTINUOUS
 62
     3
100
AcDbVertex
100
AcDb2dVertex
 10
638.7433642822984
 20
111.787241459421
 30
0.0
  0
VERTEX
  5
3C7
330
338
100
AcDbEntity
  8
LAY-1
  6
CONTINUOUS
 62
     3
100
AcDbVertex
100
AcDb2dVertex
 10
638.8201046950991
 20
111.6444851769257
 30
0.0
  0
VERTEX
  5
3C8
330
338
100
AcDbEntity
  8
LAY-1
  6
CONTINUOUS
 62
     3
100
AcDbVertex
100
AcDb2dVertex
 10
638.8928665110877
 20
111.500691015927
 30
0.0
  0
VERTEX
  5
3C9
330
338
100
AcDbEntity
  8
LAY-1
  6
CONTINUOUS
 62
     3
100
AcDbVertex
100
AcDb2dVertex
 10
638.9616216791986
 20
111.3559144118113
 30
0.0
  0
VERTEX
  5
3CA
330
338
100
AcDbEntity
  8
LAY-1
  6
CONTINUOUS
 62
     3
100
AcDbVertex
100
AcDb2dVertex
 10
639.0263436930063
 20
111.2102111787154
 30
0.0
  0
VERTEX
  5
3CB
330
338
100
AcDbEntity
  8
LAY-1
  6
CONTINUOUS
 62
     3
100
AcDbVertex
100
AcDb2dVertex
 10
639.0870076009423
 20
111.0636374880091
 30
0.0
  0
VERTEX
  5
3CC
330
338
100
AcDbEntity
  8
LAY-1
  6
CONTINUOUS
 62
     3
100
AcDbVertex
100
AcDb2dVertex
 10
639.1435900159153
 20
110.9162498466405
 30
0.0
  0
VERTEX
  5
3CD
330
338
100
AcDbEntity
  8
LAY-1
  6
CONTINUOUS
 62
     3
100
AcDbVertex
100
AcDb2dVertex
 10
639.196069124327
 20
110.7681050753509
 30
0.0
  0
VERTEX
  5
3CE
330
338
100
AcDbEntity
  8
LAY-1
  6
CONTINUOUS
 62
     3
100
AcDbVertex
100
AcDb2dVertex
 10
639.2444246944821
 20
110.6192602867698
 30
0.0
  0
VERTEX
  5
3CF
330
338
100
AcDbEntity
  8
LAY-1
  6
CONTINUOUS
 62
     3
100
AcDbVertex
100
AcDb2dVertex
 10
639.2886380843879
 20
110.4697728633965
 30
0.0
  0
VERTEX
  5
3D0
330
338
100
AcDbEntity
  8
LAY-1
  6
CONTINUOUS
 62
     3
100
AcDbVertex
100
AcDb2dVertex
 10
639.3286922489411
 20
110.3197004354784
 30
0.0
  0
VERTEX
  5
3D1
330
338
100
AcDbEntity
  8
LAY-1
  6
CONTINUOUS
 62
     3
100
AcDbVertex
100
AcDb2dVertex
 10
639.3645717464988
 20
110.1691008587931
 30
0.0
  0
VERTEX
  5
3D2
330
338
100
AcDbEntity
  8
LAY-1
  6
CONTINUOUS
 62
     3
100
AcDbVertex
100
AcDb2dVertex
 10
639.3962627448316
 20
110.0180321923443
 30
0.0
  0
VERTEX
  5
3D3
330
338
100
AcDbEntity
  8
LAY-1
  6
CONTINUOUS
 62
     3
100
AcDbVertex
100
AcDb2dVertex
 10
639.4237530264563
 20
109.8665526759787
 30
0.0
  0
VERTEX
  5
3D4
330
338
100
AcDbEntity
  8
LAY-1
  6
CONTINUOUS
 62
     3
100
AcDbVertex
100
AcDb2dVertex
 10
639.4470319933463
 20
109.7147207079333
 30
0.0
  0
VERTEX
  5
3D5
330
338
100
AcDbEntity
  8
LAY-1
  6
CONTINUOUS
 62
     3
100
AcDbVertex
100
AcDb2dVertex
 10
639.4660906710163
 20
109.5625948223221
 30
0.0
  0
VERTEX
  5
3D6
330
338
100
AcDbEntity
  8
LAY-1
  6
CONTINUOUS
 62
     3
100
AcDbVertex
100
AcDb2dVertex
 10
639.4809217119838
 20
109.4102336665698
 30
0.0
  0
VERTEX
  5
3D7
330
338
100
AcDbEntity
  8
LAY-1
  6
CONTINUOUS
 62
     3
100
AcDbVertex
100
AcDb2dVertex
 10
639.4915193985996
 20
109.2576959788022
 30
0.0
  0
VERTEX
  5
3D8
330
338
100
AcDbEntity
  8
LAY-1
  6
CONTINUOUS
 62
     3
100
AcDbVertex
100
AcDb2dVertex
 10
639.4978796452544
 20
109.1050405652018
 30
0.0
  0
VERTEX
  5
3D9
330
338
100
AcDbEntity
  8
LAY-1
  6
CONTINUOUS
 62
     3
100
AcDbVertex
100
AcDb2dVertex
 10
639.4999999999513
 20
108.9523262773364
 30
0.0
  0
VERTEX
  5
3DA
330
338
100
AcDbEntity
  8
LAY-1
  6
CONTINUOUS
 62
     3
100
AcDbVertex
100
AcDb2dVertex
 10
639.4978796452539
 20
108.799611989471
 30
0.0
  0
VERTEX
  5
3DB
330
338
100
AcDbEntity
  8
LAY-1
  6
CONTINUOUS
 62
     3
100
AcDbVertex
100
AcDb2dVertex
 10
639.4915193985987
 20
108.6469565758707
 30
0.0
  0
VERTEX
  5
3DC
330
338
100
AcDbEntity
  8
LAY-1
  6
CONTINUOUS
 62
     3
100
AcDbVertex
100
AcDb2dVertex
 10
639.4809217119827
 20
108.4944188881032
 30
0.0
  0
VERTEX
  5
3DD
330
338
100
AcDbEntity
  8
LAY-1
  6
CONTINUOUS
 62
     3
100
AcDbVertex
100
AcDb2dVertex
 10
639.4660906710149
 20
108.3420577323508
 30
0.0
  0
VERTEX
  5
3DE
330
338
100
AcDbEntity
  8
LAY-1
  6
CONTINUOUS
 62
     3
100
AcDbVertex
100
AcDb2dVertex
 10
639.4470319933441
 20
108.1899318467397
 30
0.0
  0
VERTEX
  5
3DF
330
338
100
AcDbEntity
  8
LAY-1
  6
CONTINUOUS
 62
     3
100
AcDbVertex
100
AcDb2dVertex
 10
639.4237530264538
 20
108.0380998786945
 30
0.0
  0
VERTEX
  5
3E0
330
338
100
AcDbEntity
  8
LAY-1
  6
CONTINUOUS
 62
     3
100
AcDbVertex
100
AcDb2dVertex
 10
639.3962627448287
 20
107.8866203623289
 30
0.0
  0
VERTEX
  5
3E1
330
338
100
AcDbEntity
  8
LAY-1
  6
CONTINUOUS
 62
     3
100
AcDbVertex
100
AcDb2dVertex
 10
639.3645717464956
 20
107.7355516958802
 30
0.0
  0
VERTEX
  5
3E2
330
338
100
AcDbEntity
  8
LAY-1
  6
CONTINUOUS
 62
     3
100
AcDbVertex
100
AcDb2dVertex
 10
639.3286922489375
 20
107.5849521191952
 30
0.0
  0
VERTEX
  5
3E3
330
338
100
AcDbEntity
  8
LAY-1
  6
CONTINUOUS
 62
     3
100
AcDbVertex
100
AcDb2dVertex
 10
639.2886380843838
 20
107.4348796912773
 30
0.0
  0
VERTEX
  5
3E4
330
338
100
AcDbEntity
  8
LAY-1
  6
CONTINUOUS
 62
     3
100
AcDbVertex
100
AcDb2dVertex
 10
639.2444246944775
 20
107.2853922679041
 30
0.0
  0
VERTEX
  5
3E5
330
338
100
AcDbEntity
  8
LAY-1
  6
CONTINUOUS
 62
     3
100
AcDbVertex
100
AcDb2dVertex
 10
639.1960691243219
 20
107.1365474793232
 30
0.0
  0
VERTEX
  5
3E6
330
338
100
AcDbEntity
  8
LAY-1
  6
CONTINUOUS
 62
     3
100
AcDbVertex
100
AcDb2dVertex
 10
639.1435900159098
 20
106.9884027080338
 30
0.0
  0
VERTEX
  5
3E7
330
338
100
AcDbEntity
  8
LAY-1
  6
CONTINUOUS
 62
     3
100
AcDbVertex
100
AcDb2dVertex
 10
639.0870076009368
 20
106.8410150666655
 30
0.0
  0
VERTEX
  5
3E8
330
338
100
AcDbEntity
  8
LAY-1
  6
CONTINUOUS
 62
     3
100
AcDbVertex
100
AcDb2dVertex
 10
639.0263436930004
 20
106.6944413759595
 30
0.0
  0
VERTEX
  5
3E9
330
338
100
AcDbEntity
  8
LAY-1
  6
CONTINUOUS
 62
     3
100
AcDbVertex
100
AcDb2dVertex
 10
638.9616216791923
 20
106.5487381428638
 30
0.0
  0
VERTEX
  5
3EA
330
338
100
AcDbEntity
  8
LAY-1
  6
CONTINUOUS
 62
     3
100
AcDbVertex
100
AcDb2dVertex
 10
638.8928665110809
 20
106.4039615387483
 30
0.0
  0
VERTEX
  5
3EB
330
338
100
AcDbEntity
  8
LAY-1
  6
CONTINUOUS
 62
     3
100
AcDbVertex
100
AcDb2dVertex
 10
638.820104695092
 20
106.2601673777499
 30
0.0
  0
VERTEX
  5
3EC
330
338
100
AcDbEntity
  8
LAY-1
  6
CONTINUOUS
 62
     3
100
AcDbVertex
100
AcDb2dVertex
 10
638.743364282291
 20
106.1174110952551
 30
0.0
  0
VERTEX
  5
3ED
330
338
100
AcDbEntity
  8
LAY-1
  6
CONTINUOUS
 62
     3
100
AcDbVertex
100
AcDb2dVertex
 10
638.6626748575678
 20
105.9757477265279
 30
0.0
  0
VERTEX
  5
3EE
330
338
100
AcDbEntity
  8
LAY-1
  6
CONTINUOUS
 62
     3
100
AcDbVertex
100
AcDb2dVertex
 10
638.5780675282318
 20
105.8352318854937
 30
0.0
  0
VERTEX
  5
3EF
330
338
100
AcDbEntity
  8
LAY-1
  6
CONTINUOUS
 62
     3
100
AcDbVertex
100
AcDb2dVertex
 10
638.4895749120186
 20
105.6959177436843
 30
0.0
  0
VERTEX
  5
3F0
330
338
100
AcDbEntity
  8
LAY-1
  6
CONTINUOUS
 62
     3
100
AcDbVertex
100
AcDb2dVertex
 10
638.3972311245166
 20
105.5578590093531
 30
0.0
  0
VERTEX
  5
3F1
330
338
100
AcDbEntity
  8
LAY-1
  6
CONTINUOUS
 62
     3
100
AcDbVertex
100
AcDb2dVertex
 10
638.3010717660136
 20
105.4211089067705
 30
0.0
  0
VERTEX
  5
3F2
330
338
100
AcDbEntity
  8
LAY-1
  6
CONTINUOUS
 62
     3
100
AcDbVertex
100
AcDb2dVertex
 10
638.2011339077729
 20
105.2857201557041
 30
0.0
  0
VERTEX
  5
3F3
330
338
100
AcDbEntity
  8
LAY-1
  6
CONTINUOUS
 62
     3
100
AcDbVertex
100
AcDb2dVertex
 10
638.0974560777412
 20
105.1517449510945
 30
0.0
  0
VERTEX
  5
3F4
330
338
100
AcDbEntity
  8
LAY-1
  6
CONTINUOUS
 62
     3
100
AcDbVertex
100
AcDb2dVertex
 10
637.9900782456956
 20
105.0192349429338
 30
0.0
  0
VERTEX
  5
3F5
330
338
100
AcDbEntity
  8
LAY-1
  6
CONTINUOUS
 62
     3
100
AcDbVertex
100
AcDb2dVertex
 10
637.8790418078345
 20
104.8882412163521
 30
0.0
  0
VERTEX
  5
3F6
330
338
100
AcDbEntity
  8
LAY-1
  6
CONTINUOUS
 62
     3
100
AcDbVertex
100
AcDb2dVertex
 10
637.7643895708181
 20
104.7588142719248
 30
0.0
  0
VERTEX
  5
3F7
330
338
100
AcDbEntity
  8
LAY-1
  6
CONTINUOUS
 62
     3
100
AcDbVertex
100
AcDb2dVertex
 10
637.6461657352664
 20
104.6310040062029
 30
0.0
  0
VERTEX
  5
3F8
330
338
100
AcDbEntity
  8
LAY-1
  6
CONTINUOUS
 62
     3
100
AcDbVertex
100
AcDb2dVertex
 10
637.5244158787185
 20
104.5048596924767
 30
0.0
  0
VERTEX
  5
3F9
330
338
100
AcDbEntity
  8
LAY-1
  6
CONTINUOUS
 62
     3
100
AcDbVertex
100
AcDb2dVertex
 10
637.3991869380616
 20
104.3804299617803
 30
0.0
  0
VERTEX
  5
3FA
330
338
100
AcDbEntity
  8
LAY-1
  6
CONTINUOUS
 62
     3
100
AcDbVertex
100
AcDb2dVertex
 10
637.2705271914366
 20
104.2577627841435
 30
0.0
  0
VERTEX
  5
3FB
330
338
100
AcDbEntity
  8
LAY-1
  6
CONTINUOUS
 62
     3
100
AcDbVertex
100
AcDb2dVertex
 10
637.1384862396244
 20
104.1369054500985
 30
0.0
  0
VERTEX
  5
3FC
330
338
100
AcDbEntity
  8
LAY-1
  6
CONTINUOUS
 62
     3
100
AcDbVertex
100
AcDb2dVertex
 10
637.0031149869257
 20
104.0179045524482
 30
0.0
  0
VERTEX
  5
3FD
330
338
100
AcDbEntity
  8
LAY-1
  6
CONTINUOUS
 62
     3
100
AcDbVertex
100
AcDb2dVertex
 10
636.8644656215353
 20
103.9008059683039
 30
0.0
  0
VERTEX
  5
3FE
330
338
100
AcDbEntity
  8
LAY-1
  6
CONTINUOUS
 62
     3
100
AcDbVertex
100
AcDb2dVertex
 10
636.7225915954232
 20
103.7856548413988
 30
0.0
  0
VERTEX
  5
3FF
330
338
100
AcDbEntity
  8
LAY-1
  6
CONTINUOUS
 62
     3
100
AcDbVertex
100
AcDb2dVertex
 10
636.5775476037265
 20
103.6724955646843
 30
0.0
  0
VERTEX
  5
400
330
338
100
AcDbEntity
  8
LAY-1
  6
CONTINUOUS
 62
     3
100
AcDbVertex
100
AcDb2dVertex
 10
636.4293895636656
 20
103.5613717632158
 30
0.0
  0
VERTEX
  5
401
330
338
100
AcDbEntity
  8
LAY-1
  6
CONTINUOUS
 62
     3
100
AcDbVertex
100
AcDb2dVertex
 10
636.278174592985
 20
103.4523262773339
 30
0.0
  0
VERTEX
  5
402
330
338
100
AcDbEntity
  8
LAY-1
  6
CONTINUOUS
 62
     3
100
AcDbVertex
100
AcDb2dVertex
 10
636.1239609879343
 20
103.3454011461494
 30
0.0
  0
VERTEX
  5
403
330
338
100
AcDbEntity
  8
LAY-1
  6
CONTINUOUS
 62
     3
100
AcDbVertex
100
AcDb2dVertex
 10
635.9668082007942
 20
103.2406375913357
 30
0.0
  0
VERTEX
  5
404
330
338
100
AcDbEntity
  8
LAY-1
  6
CONTINUOUS
 62
     3
100
AcDbVertex
100
AcDb2dVertex
 10
635.8067768169557
 20
103.1380760012373
 30
0.0
  0
VERTEX
  5
405
330
338
100
AcDbEntity
  8
LAY-1
  6
CONTINUOUS
 62
     3
100
AcDbVertex
100
AcDb2dVertex
 10
635.6439285315631
 20
103.0377559152998
 30
0.0
  0
VERTEX
  5
406
330
338
100
AcDbEntity
  8
LAY-1
  6
CONTINUOUS
 62
     3
100
AcDbVertex
100
AcDb2dVertex
 10
635.4783261257305
 20
102.9397160088259
 30
0.0
  0
VERTEX
  5
407
330
338
100
AcDbEntity
  8
LAY-1
  6
CONTINUOUS
 62
     3
100
AcDbVertex
100
AcDb2dVertex
 10
635.3100334423381
 20
102.8439940780657
 30
0.0
  0
VERTEX
  5
408
330
338
100
AcDbEntity
  8
LAY-1
  6
CONTINUOUS
 62
     3
100
AcDbVertex
100
AcDb2dVertex
 10
635.1391153614189
 20
102.7506270256457
 30
0.0
  0
VERTEX
  5
409
330
338
100
AcDbEntity
  8
LAY-1
  6
CONTINUOUS
 62
     3
100
AcDbVertex
100
AcDb2dVertex
 10
634.9656377751464
 20
102.6596508463421
 30
0.0
  0
VERTEX
  5
40A
330
338
100
AcDbEntity
  8
LAY-1
  6
CONTINUOUS
 62
     3
100
AcDbVertex
100
AcDb2dVertex
 10
634.7896675624324
 20
102.5711006132037
 30
0.0
  0
VERTEX
  5
40B
330
338
100
AcDbEntity
  8
LAY-1
  6
CONTINUOUS
 62
     3
100
AcDbVertex
100
AcDb2dVertex
 10
634.611272563144
 20
102.4850104640311
 30
0.0
  0
VERTEX
  5
40C
330
338
100
AcDbEntity
  8
LAY-1
  6
CONTINUOUS
 62
     3
100
AcDbVertex
100
AcDb2dVertex
 10
634.4305215519489
 20
102.4014135882153
 30
0.0
  0
VERTEX
  5
40D
330
338
100
AcDbEntity
  8
LAY-1
  6
CONTINUOUS
 62
     3
100
AcDbVertex
100
AcDb2dVertex
 10
634.2474842118031
 20
102.3203422139436
 30
0.0
  0
VERTEX
  5
40E
330
338
100
AcDbEntity
  8
LAY-1
  6
CONTINUOUS
 62
     3
100
AcDbVertex
100
AcDb2dVertex
 10
634.0622311070849
 20
102.2418275957741
 30
0.0
  0
VERTEX
  5
40F
330
338
100
AcDbEntity
  8
LAY-1
  6
CONTINUOUS
 62
     3
100
AcDbVertex
100
AcDb2dVertex
 10
633.8748336563933
 20
102.1659000025863
 30
0.0
  0
VERTEX
  5
410
330
338
100
AcDbEntity
  8
LAY-1
  6
CONTINUOUS
 62
     3
100
AcDbVertex
100
AcDb2dVertex
 10
633.6853641050125
 20
102.0925887059131
 30
0.0
  0
VERTEX
  5
411
330
338
100
AcDbEntity
  8
LAY-1
  6
CONTINUOUS
 62
     3
100
AcDbVertex
100
AcDb2dVertex
 10
633.4938954970612
 20
102.0219219686547
 30
0.0
  0
VERTEX
  5
412
330
338
100
AcDbEntity
  8
LAY-1
  6
CONTINUOUS
 62
     3
100
AcDbVertex
100
AcDb2dVertex
 10
633.3005016473326
 20
101.9539270341836
 30
0.0
  0
VERTEX
  5
413
330
338
100
AcDbEntity
  8
LAY-1
  6
CONTINUOUS
 62
     3
100
AcDbVertex
100
AcDb2dVertex
 10
633.1052571128373
 20
101.8886301158414
 30
0.0
  0
VERTEX
  5
414
330
338
100
AcDbEntity
  8
LAY-1
  6
CONTINUOUS
 62
     3
100
AcDbVertex
100
AcDb2dVertex
 10
632.90823716406
 20
101.826056386833
 30
0.0
  0
VERTEX
  5
415
330
338
100
AcDbEntity
  8
LAY-1
  6
CONTINUOUS
 62
     3
100
AcDbVertex
100
AcDb2dVertex
 10
632.7095177559411
 20
101.7662299705222
 30
0.0
  0
VERTEX
  5
416
330
338
100
AcDbEntity
  8
LAY-1
  6
CONTINUOUS
 62
     3
100
AcDbVertex
100
AcDb2dVertex
 10
632.5091754985958
 20
101.7091739311313
 30
0.0
  0
VERTEX
  5
417
330
338
100
AcDbEntity
  8
LAY-1
  6
CONTINUOUS
 62
     3
100
AcDbVertex
100
AcDb2dVertex
 10
632.3072876277772
 20
101.6549102648495
 30
0.0
  0
VERTEX
  5
418
330
338
100
AcDbEntity
  8
LAY-1
  6
CONTINUOUS
 62
     3
100
AcDbVertex
100
AcDb2dVertex
 10
632.1039319751033
 20
101.6034598913533
 30
0.0
  0
VERTEX
  5
419
330
338
100
AcDbEntity
  8
LAY-1
  6
CONTINUOUS
 62
     3
100
AcDbVertex
100
AcDb2dVertex
 10
631.8991869380488
 20
101.5548426457408
 30
0.0
  0
VERTEX
  5
41A
330
338
100
AcDbEntity
  8
LAY-1
  6
CONTINUOUS
 62
     3
100
AcDbVertex
100
AcDb2dVertex
 10
631.6931314497235
 20
101.5090772708861
 30
0.0
  0
VERTEX
  5
41B
330
338
100
AcDbEntity
  8
LAY-1
  6
CONTINUOUS
 62
     3
100
AcDbVertex
100
AcDb2dVertex
 10
631.4858449484402
 20
101.4661814102118
 30
0.0
  0
VERTEX
  5
41C
330
338
100
AcDbEntity
  8
LAY-1
  6
CONTINUOUS
 62
     3
100
AcDbVertex
100
AcDb2dVertex
 10
631.277407347091
 20
101.4261716008893
 30
0.0
  0
VERTEX
  5
41D
330
338
100
AcDbEntity
  8
LAY-1
  6
CONTINUOUS
 62
     3
100
AcDbVertex
100
AcDb2dVertex
 10
631.0678990023391
 20
101.3890632674614
 30
0.0
  0
VERTEX
  5
41E
330
338
100
AcDbEntity
  8
LAY-1
  6
CONTINUOUS
 62
     3
100
AcDbVertex
100
AcDb2dVertex
 10
630.8574006836398
 20
101.3548707158972
 30
0.0
  0
VERTEX
  5
41F
330
338
100
AcDbEntity
  8
LAY-1
  6
CONTINUOUS
 62
     3
100
AcDbVertex
100
AcDb2dVertex
 10
630.6459935421015
 20
101.323607128076
 30
0.0
  0
VERTEX
  5
420
330
338
100
AcDbEntity
  8
LAY-1
  6
CONTINUOUS
 62
     3
100
AcDbVertex
100
AcDb2dVertex
 10
630.433759079202
 20
101.2952845567062
 30
0.0
  0
VERTEX
  5
421
330
338
100
AcDbEntity
  8
LAY-1
  6
CONTINUOUS
 62
     3
100
AcDbVertex
100
AcDb2dVertex
 10
630.2207791153667
 20
101.2699139206781
 30
0.0
  0
VERTEX
  5
422
330
338
100
AcDbEntity
  8
LAY-1
  6
CONTINUOUS
 62
     3
100
AcDbVertex
100
AcDb2dVertex
 10
630.0071357584261
 20
101.2475050008549
 30
0.0
  0
VERTEX
  5
423
330
338
100
AcDbEntity
  8
LAY-1
  6
CONTINUOUS
 62
     3
100
AcDbVertex
100
AcDb2dVertex
 10
629.7929113719606
 20
101.2280664363018
 30
0.0
  0
VERTEX
  5
424
330
338
100
AcDbEntity
  8
LAY-1
  6
CONTINUOUS
 62
     3
100
AcDbVertex
100
AcDb2dVertex
 10
629.5781885435497
 20
101.2116057209555
 30
0.0
  0
VERTEX
  5
425
330
338
100
AcDbEntity
  8
LAY-1
  6
CONTINUOUS
 62
     3
100
AcDbVertex
100
AcDb2dVertex
 10
629.3630500529309
 20
101.1981292007349
 30
0.0
  0
VERTEX
  5
426
330
338
100
AcDbEntity
  8
LAY-1
  6
CONTINUOUS
 62
     3
100
AcDbVertex
100
AcDb2dVertex
 10
629.1475788400876
 20
101.1876420710954
 30
0.0
  0
VERTEX
  5
427
330
338
100
AcDbEntity
  8
LAY-1
  6
CONTINUOUS
 62
     3
100
AcDbVertex
100
AcDb2dVertex
 10
628.9318579732746
 20
101.1801483750248
 30
0.0
  0
VERTEX
  5
428
330
338
100
AcDbEntity
  8
LAY-1
  6
CONTINUOUS
 62
     3
100
AcDbVertex
100
AcDb2dVertex
 10
628.7159706169919
 20
101.1756510014858
 30
0.0
  0
VERTEX
  5
429
330
338
100
AcDbEntity
  8
LAY-1
  6
CONTINUOUS
 62
     3
100
AcDbVertex
100
AcDb2dVertex
 10
628.4999999999252
 20
101.1741516843013
 30
0.0
  0
VERTEX
  5
42A
330
338
100
AcDbEntity
  8
LAY-1
  6
CONTINUOUS
 62
     3
100
AcDbVertex
100
AcDb2dVertex
 10
628.2840293828585
 20
101.1756510014868
 30
0.0
  0
VERTEX
  5
42B
330
338
100
AcDbEntity
  8
LAY-1
  6
CONTINUOUS
 62
     3
100
AcDbVertex
100
AcDb2dVertex
 10
628.0681420265757
 20
101.180148375027
 30
0.0
  0
VERTEX
  5
42C
330
338
100
AcDbEntity
  8
LAY-1
  6
CONTINUOUS
 62
     3
100
AcDbVertex
100
AcDb2dVertex
 10
627.8524211597628
 20
101.1876420710987
 30
0.0
  0
VERTEX
  5
42D
330
338
100
AcDbEntity
  8
LAY-1
  6
CONTINUOUS
 62
     3
100
AcDbVertex
100
AcDb2dVertex
 10
627.6369499469199
 20
101.1981292007393
 30
0.0
  0
VERTEX
  5
42E
330
338
100
AcDbEntity
  8
LAY-1
  6
CONTINUOUS
 62
     3
100
AcDbVertex
100
AcDb2dVertex
 10
627.4218114563013
 20
101.2116057209609
 30
0.0
  0
VERTEX
  5
42F
330
338
100
AcDbEntity
  8
LAY-1
  6
CONTINUOUS
 62
     3
100
AcDbVertex
100
AcDb2dVertex
 10
627.2070886278907
 20
101.2280664363082
 30
0.0
  0
VERTEX
  5
430
330
338
100
AcDbEntity
  8
LAY-1
  6
CONTINUOUS
 62
     3
100
AcDbVertex
100
AcDb2dVertex
 10
626.9928642414255
 20
101.2475050008624
 30
0.0
  0
VERTEX
  5
431
330
338
100
AcDbEntity
  8
LAY-1
  6
CONTINUOUS
 62
     3
100
AcDbVertex
100
AcDb2dVertex
 10
626.779220884485
 20
101.2699139206866
 30
0.0
  0
VERTEX
  5
432
330
338
100
AcDbEntity
  8
LAY-1
  6
CONTINUOUS
 62
     3
100
AcDbVertex
100
AcDb2dVertex
 10
626.5662409206499
 20
101.2952845567157
 30
0.0
  0
VERTEX
  5
433
330
338
100
AcDbEntity
  8
LAY-1
  6
CONTINUOUS
 62
     3
100
AcDbVertex
100
AcDb2dVertex
 10
626.3540064577509
 20
101.3236071280865
 30
0.0
  0
VERTEX
  5
434
330
338
100
AcDbEntity
  8
LAY-1
  6
CONTINUOUS
 62
     3
100
AcDbVertex
100
AcDb2dVertex
 10
626.1425993162131
 20
101.3548707159086
 30
0.0
  0
VERTEX
  5
435
330
338
100
AcDbEntity
  8
LAY-1
  6
CONTINUOUS
 62
     3
100
AcDbVertex
100
AcDb2dVertex
 10
625.9321009975141
 20
101.389063267474
 30
0.0
  0
VERTEX
  5
436
330
338
100
AcDbEntity
  8
LAY-1
  6
CONTINUOUS
 62
     3
100
AcDbVertex
100
AcDb2dVertex
 10
625.7225926527627
 20
101.4261716009028
 30
0.0
  0
VERTEX
  5
437
330
338
100
AcDbEntity
  8
LAY-1
  6
CONTINUOUS
 62
     3
100
AcDbVertex
100
AcDb2dVertex
 10
625.5141550514141
 20
101.4661814102264
 30
0.0
  0
VERTEX
  5
438
330
338
100
AcDbEntity
  8
LAY-1
  6
CONTINUOUS
 62
     3
100
AcDbVertex
100
AcDb2dVertex
 10
625.3068685501313
 20
101.5090772709015
 30
0.0
  0
VERTEX
  5
439
330
338
100
AcDbEntity
  8
LAY-1
  6
CONTINUOUS
 62
     3
100
AcDbVertex
100
AcDb2dVertex
 10
625.1008130618063
 20
101.5548426457573
 30
0.0
  0
VERTEX
  5
43A
330
338
100
AcDbEntity
  8
LAY-1
  6
CONTINUOUS
 62
     3
100
AcDbVertex
100
AcDb2dVertex
 10
624.8960680247527
 20
101.6034598913706
 30
0.0
  0
VERTEX
  5
43B
330
338
100
AcDbEntity
  8
LAY-1
  6
CONTINUOUS
 62
     3
100
AcDbVertex
100
AcDb2dVertex
 10
624.6927123720793
 20
101.6549102648677
 30
0.0
  0
VERTEX
  5
43C
330
338
100
AcDbEntity
  8
LAY-1
  6
CONTINUOUS
 62
     3
100
AcDbVertex
100
AcDb2dVertex
 10
624.4908245012616
 20
101.7091739311504
 30
0.0
  0
VERTEX
  5
43D
330
338
100
AcDbEntity
  8
LAY-1
  6
CONTINUOUS
 62
     3
100
AcDbVertex
100
AcDb2dVertex
 10
624.2904822439167
 20
101.7662299705421
 30
0.0
  0
VERTEX
  5
43E
330
338
100
AcDbEntity
  8
LAY-1
  6
CONTINUOUS
 62
     3
100
AcDbVertex
100
AcDb2dVertex
 10
624.0917628357987
 20
101.8260563868538
 30
0.0
  0
VERTEX
  5
43F
330
338
100
AcDbEntity
  8
LAY-1
  6
CONTINUOUS
 62
     3
100
AcDbVertex
100
AcDb2dVertex
 10
623.8947428870221
 20
101.888630115863
 30
0.0
  0
VERTEX
  5
440
330
338
100
AcDbEntity
  8
LAY-1
  6
CONTINUOUS
 62
     3
100
AcDbVertex
100
AcDb2dVertex
 10
623.6994983525275
 20
101.9539270342059
 30
0.0
  0
VERTEX
  5
441
330
338
100
AcDbEntity
  8
LAY-1
  6
CONTINUOUS
 62
     3
100
AcDbVertex
100
AcDb2dVertex
 10
623.5061045028
 20
102.0219219686778
 30
0.0
  0
VERTEX
  5
442
330
338
100
AcDbEntity
  8
LAY-1
  6
CONTINUOUS
 62
     3
100
AcDbVertex
100
AcDb2dVertex
 10
623.3146358948494
 20
102.0925887059369
 30
0.0
  0
VERTEX
  5
443
330
338
100
AcDbEntity
  8
LAY-1
  6
CONTINUOUS
 62
     3
100
AcDbVertex
100
AcDb2dVertex
 10
623.1251663434695
 20
102.1659000026108
 30
0.0
  0
VERTEX
  5
444
330
338
100
AcDbEntity
  8
LAY-1
  6
CONTINUOUS
 62
     3
100
AcDbVertex
100
AcDb2dVertex
 10
622.9377688927788
 20
102.2418275957991
 30
0.0
  0
VERTEX
  5
445
330
338
100
AcDbEntity
  8
LAY-1
  6
CONTINUOUS
 62
     3
100
AcDbVertex
100
AcDb2dVertex
 10
622.7525157880617
 20
102.3203422139694
 30
0.0
  0
VERTEX
  5
446
330
338
100
AcDbEntity
  8
LAY-1
  6
CONTINUOUS
 62
     3
100
AcDbVertex
100
AcDb2dVertex
 10
622.5694784479166
 20
102.4014135882417
 30
0.0
  0
VERTEX
  5
447
330
338
100
AcDbEntity
  8
LAY-1
  6
CONTINUOUS
 62
     3
100
AcDbVertex
100
AcDb2dVertex
 10
622.3887274367225
 20
102.485010464058
 30
0.0
  0
VERTEX
  5
448
330
338
100
AcDbEntity
  8
LAY-1
  6
CONTINUOUS
 62
     3
100
AcDbVertex
100
AcDb2dVertex
 10
622.2103324374349
 20
102.5711006132314
 30
0.0
  0
VERTEX
  5
449
330
338
100
AcDbEntity
  8
LAY-1
  6
CONTINUOUS
 62
     3
100
AcDbVertex
100
AcDb2dVertex
 10
622.0343622247221
 20
102.6596508463702
 30
0.0
  0
VERTEX
  5
44A
330
338
100
AcDbEntity
  8
LAY-1
  6
CONTINUOUS
 62
     3
100
AcDbVertex
100
AcDb2dVertex
 10
621.8608846384504
 20
102.7506270256743
 30
0.0
  0
VERTEX
  5
44B
330
338
100
AcDbEntity
  8
LAY-1
  6
CONTINUOUS
 62
     3
100
AcDbVertex
100
AcDb2dVertex
 10
621.6899665575322
 20
102.8439940780947
 30
0.0
  0
VERTEX
  5
44C
330
338
100
AcDbEntity
  8
LAY-1
  6
CONTINUOUS
 62
     3
100
AcDbVertex
100
AcDb2dVertex
 10
621.5216738741408
 20
102.9397160088553
 30
0.0
  0
VERTEX
  5
44D
330
338
100
AcDbEntity
  8
LAY-1
  6
CONTINUOUS
 62
     3
100
AcDbVertex
100
AcDb2dVertex
 10
621.3560714683093
 20
103.0377559153297
 30
0.0
  0
VERTEX
  5
44E
330
338
100
AcDbEntity
  8
LAY-1
  6
CONTINUOUS
 62
     3
100
AcDbVertex
100
AcDb2dVertex
 10
621.1932231829178
 20
103.1380760012676
 30
0.0
  0
VERTEX
  5
44F
330
338
100
AcDbEntity
  8
LAY-1
  6
CONTINUOUS
 62
     3
100
AcDbVertex
100
AcDb2dVertex
 10
621.03319179908
 20
103.2406375913663
 30
0.0
  0
VERTEX
  5
450
330
338
100
AcDbEntity
  8
LAY-1
  6
CONTINUOUS
 62
     3
100
AcDbVertex
100
AcDb2dVertex
 10
620.876039011941
 20
103.3454011461802
 30
0.0
  0
VERTEX
  5
451
330
338
100
AcDbEntity
  8
LAY-1
  6
CONTINUOUS
 62
     3
100
AcDbVertex
100
AcDb2dVertex
 10
620.7218254068916
 20
103.452326277365
 30
0.0
  0
VERTEX
  5
452
330
338
100
AcDbEntity
  8
LAY-1
  6
CONTINUOUS
 62
     3
100
AcDbVertex
100
AcDb2dVertex
 10
620.570610436212
 20
103.5613717632471
 30
0.0
  0
VERTEX
  5
453
330
338
100
AcDbEntity
  8
LAY-1
  6
CONTINUOUS
 62
     3
100
AcDbVertex
100
AcDb2dVertex
 10
620.422452396152
 20
103.6724955647159
 30
0.0
  0
VERTEX
  5
454
330
338
100
AcDbEntity
  8
LAY-1
  6
CONTINUOUS
 62
     3
100
AcDbVertex
100
AcDb2dVertex
 10
620.2774084044564
 20
103.7856548414305
 30
0.0
  0
VERTEX
  5
455
330
338
100
AcDbEntity
  8
LAY-1
  6
CONTINUOUS
 62
     3
100
AcDbVertex
100
AcDb2dVertex
 10
620.1355343783451
 20
103.9008059683358
 30
0.0
  0
VERTEX
  5
456
330
338
100
AcDbEntity
  8
LAY-1
  6
CONTINUOUS
 62
     3
100
AcDbVertex
100
AcDb2dVertex
 10
619.9968850129558
 20
104.0179045524802
 30
0.0
  0
VERTEX
  5
457
330
338
100
AcDbEntity
  8
LAY-1
  6
CONTINUOUS
 62
     3
100
AcDbVertex
100
AcDb2dVertex
 10
619.8615137602583
 20
104.1369054501306
 30
0.0
  0
VERTEX
  5
458
330
338
100
AcDbEntity
  8
LAY-1
  6
CONTINUOUS
 62
     3
100
AcDbVertex
100
AcDb2dVertex
 10
619.7294728084471
 20
104.2577627841757
 30
0.0
  0
VERTEX
  5
459
330
338
100
AcDbEntity
  8
LAY-1
  6
CONTINUOUS
 62
     3
100
AcDbVertex
100
AcDb2dVertex
 10
619.6008130618229
 20
104.3804299618123
 30
0.0
  0
VERTEX
  5
45A
330
338
100
AcDbEntity
  8
LAY-1
  6
CONTINUOUS
 62
     3
100
AcDbVertex
100
AcDb2dVertex
 10
619.4755841211671
 20
104.5048596925087
 30
0.0
  0
VERTEX
  5
45B
330
338
100
AcDbEntity
  8
LAY-1
  6
CONTINUOUS
 62
     3
100
AcDbVertex
100
AcDb2dVertex
 10
619.3538342646201
 20
104.6310040062349
 30
0.0
  0
VERTEX
  5
45C
330
338
100
AcDbEntity
  8
LAY-1
  6
CONTINUOUS
 62
     3
100
AcDbVertex
100
AcDb2dVertex
 10
619.2356104290694
 20
104.7588142719568
 30
0.0
  0
VERTEX
  5
45D
330
338
100
AcDbEntity
  8
LAY-1
  6
CONTINUOUS
 62
     3
100
AcDbVertex
100
AcDb2dVertex
 10
619.1209581920538
 20
104.8882412163838
 30
0.0
  0
VERTEX
  5
45E
330
338
100
AcDbEntity
  8
LAY-1
  6
CONTINUOUS
 62
     3
100
AcDbVertex
100
AcDb2dVertex
 10
619.0099217541934
 20
105.0192349429653
 30
0.0
  0
VERTEX
  5
45F
330
338
100
AcDbEntity
  8
LAY-1
  6
CONTINUOUS
 62
     3
100
AcDbVertex
100
AcDb2dVertex
 10
618.9025439221488
 20
105.151744951126
 30
0.0
  0
VERTEX
  5
460
330
338
100
AcDbEntity
  8
LAY-1
  6
CONTINUOUS
 62
     3
100
AcDbVertex
100
AcDb2dVertex
 10
618.798866092118
 20
105.2857201557352
 30
0.0
  0
VERTEX
  5
461
330
338
100
AcDbEntity
  8
LAY-1
  6
CONTINUOUS
 62
     3
100
AcDbVertex
100
AcDb2dVertex
 10
618.6989282338782
 20
105.4211089068015
 30
0.0
  0
VERTEX
  5
462
330
338
100
AcDbEntity
  8
LAY-1
  6
CONTINUOUS
 62
     3
100
AcDbVertex
100
AcDb2dVertex
 10
618.6027688753761
 20
105.5578590093838
 30
0.0
  0
VERTEX
  5
463
330
338
100
AcDbEntity
  8
LAY-1
  6
CONTINUOUS
 62
     3
100
AcDbVertex
100
AcDb2dVertex
 10
618.5104250878749
 20
105.6959177437147
 30
0.0
  0
VERTEX
  5
464
330
338
100
AcDbEntity
  8
LAY-1
  6
CONTINUOUS
 62
     3
100
AcDbVertex
100
AcDb2dVertex
 10
618.4219324716626
 20
105.8352318855237
 30
0.0
  0
VERTEX
  5
465
330
338
100
AcDbEntity
  8
LAY-1
  6
CONTINUOUS
 62
     3
100
AcDbVertex
100
AcDb2dVertex
 10
618.337325142327
 20
105.9757477265575
 30
0.0
  0
VERTEX
  5
466
330
338
100
AcDbEntity
  8
LAY-1
  6
CONTINUOUS
 62
     3
100
AcDbVertex
100
AcDb2dVertex
 10
618.2566357176046
 20
106.1174110952842
 30
0.0
  0
VERTEX
  5
467
330
338
100
AcDbEntity
  8
LAY-1
  6
CONTINUOUS
 62
     3
100
AcDbVertex
100
AcDb2dVertex
 10
618.1798953048043
 20
106.2601673777788
 30
0.0
  0
VERTEX
  5
468
330
338
100
AcDbEntity
  8
LAY-1
  6
CONTINUOUS
 62
     3
100
AcDbVertex
100
AcDb2dVertex
 10
618.1071334888162
 20
106.4039615387768
 30
0.0
  0
VERTEX
  5
469
330
338
100
AcDbEntity
  8
LAY-1
  6
CONTINUOUS
 62
     3
100
AcDbVertex
100
AcDb2dVertex
 10
618.0383783207052
 20
106.5487381428918
 30
0.0
  0
VERTEX
  5
46A
330
338
100
AcDbEntity
  8
LAY-1
  6
CONTINUOUS
 62
     3
100
AcDbVertex
100
AcDb2dVertex
 10
617.9736563068977
 20
106.694441375987
 30
0.0
  0
VERTEX
  5
46B
330
338
100
AcDbEntity
  8
LAY-1
  6
CONTINUOUS
 62
     3
100
AcDbVertex
100
AcDb2dVertex
 10
617.912992398962
 20
106.8410150666925
 30
0.0
  0
VERTEX
  5
46C
330
338
100
AcDbEntity
  8
LAY-1
  6
CONTINUOUS
 62
     3
100
AcDbVertex
100
AcDb2dVertex
 10
617.8564099839894
 20
106.9884027080603
 30
0.0
  0
VERTEX
  5
46D
330
338
100
AcDbEntity
  8
LAY-1
  6
CONTINUOUS
 62
     3
100
AcDbVertex
100
AcDb2dVertex
 10
617.8039308755779
 20
107.1365474793491
 30
0.0
  0
VERTEX
  5
46E
330
338
100
AcDbEntity
  8
LAY-1
  6
CONTINUOUS
 62
     3
100
AcDbVertex
100
AcDb2dVertex
 10
617.7555753054228
 20
107.2853922679295
 30
0.0
  0
VERTEX
  5
46F
330
338
100
AcDbEntity
  8
LAY-1
  6
CONTINUOUS
 62
     3
100
AcDbVertex
100
AcDb2dVertex
 10
617.7113619155169
 20
107.4348796913021
 30
0.0
  0
VERTEX
  5
470
330
338
100
AcDbEntity
  8
LAY-1
  6
CONTINUOUS
 62
     3
100
AcDbVertex
100
AcDb2dVertex
 10
617.6713077509635
 20
107.5849521192194
 30
0.0
  0
VERTEX
  5
471
330
338
100
AcDbEntity
  8
LAY-1
  6
CONTINUOUS
 62
     3
100
AcDbVertex
100
AcDb2dVertex
 10
617.6354282534058
 20
107.7355516959038
 30
0.0
  0
VERTEX
  5
472
330
338
100
AcDbEntity
  8
LAY-1
  6
CONTINUOUS
 62
     3
100
AcDbVertex
100
AcDb2dVertex
 10
617.6037372550728
 20
107.8866203623519
 30
0.0
  0
VERTEX
  5
473
330
338
100
AcDbEntity
  8
LAY-1
  6
CONTINUOUS
 62
     3
100
AcDbVertex
100
AcDb2dVertex
 10
617.5762469734481
 20
108.0380998787167
 30
0.0
  0
VERTEX
  5
474
330
338
100
AcDbEntity
  8
LAY-1
  6
CONTINUOUS
 62
     3
100
AcDbVertex
100
AcDb2dVertex
 10
617.552968006558
 20
108.1899318467615
 30
0.0
  0
VERTEX
  5
475
330
338
100
AcDbEntity
  8
LAY-1
  6
CONTINUOUS
 62
     3
100
AcDbVertex
100
AcDb2dVertex
 10
617.5339093288876
 20
108.3420577323719
 30
0.0
  0
VERTEX
  5
476
330
338
100
AcDbEntity
  8
LAY-1
  6
CONTINUOUS
 62
     3
100
AcDbVertex
100
AcDb2dVertex
 10
617.5190782879199
 20
108.4944188881234
 30
0.0
  0
VERTEX
  5
477
330
338
100
AcDbEntity
  8
LAY-1
  6
CONTINUOUS
 62
     3
100
AcDbVertex
100
AcDb2dVertex
 10
617.5084806013037
 20
108.6469565758902
 30
0.0
  0
VERTEX
  5
478
330
338
100
AcDbEntity
  8
LAY-1
  6
CONTINUOUS
 62
     3
100
AcDbVertex
100
AcDb2dVertex
 10
617.5021203546488
 20
108.7996119894898
 30
0.0
  0
VERTEX
  5
479
330
338
100
AcDbEntity
  8
LAY-1
  6
CONTINUOUS
 62
     3
100
AcDbVertex
100
AcDb2dVertex
 10
617.4999999999513
 20
108.9523262773543
 30
0.0
  0
SEQEND
  5
47A
330
338
100
AcDbEntity
  8
LAY-1
  6
CONTINUOUS
 62
     3
  0
LINE
  5
47B
330
1F
100
AcDbEntity
  8
LAY-1
  6
CONTINUOUS
 62
     3
100
AcDbLine
 10
634.8508529610302
 20
50.72731000165103
 30
0.0
 11
622.1491470388702
 21
50.72731000165103
 31
0.0
  0
LINE
  5
47C
330
1F
100
AcDbEntity
  8
LAY-1
  6
CONTINUOUS
 62
     3
100
AcDbLine
 10
634.8508529610261
 20
44.36334897096778
 30
0.0
 11
622.1491470388316
 21
44.36334897095698
 31
0.0
  0
LINE
  5
47D
330
1F
100
AcDbEntity
  8
LAY-1
  6
CONTINUOUS
 62
     3
100
AcDbLine
 10
622.1491470388702
 20
50.72731000165103
 30
0.0
 11
615.7982940777702
 21
42.94913540859104
 31
0.0
  0
LINE
  5
47E
330
1F
100
AcDbEntity
  8
LAY-1
  6
CONTINUOUS
 62
     3
100
AcDbLine
 10
622.1491470388336
 20
44.36334897095931
 30
0.0
 11
615.7982940777857
 21
36.58517437792326
 31
0.0
  0
LINE
  5
47F
330
1F
100
AcDbEntity
  8
LAY-1
  6
CONTINUOUS
 62
     3
100
AcDbLine
 10
622.1491470388567
 20
28.80699978487885
 30
0.0
 11
615.7982940777857
 21
36.58517437792326
 31
0.0
  0
LINE
  5
480
330
1F
100
AcDbEntity
  8
LAY-1
  6
CONTINUOUS
 62
     3
100
AcDbLine
 10
622.1491470388544
 20
28.80699978487976
 30
0.0
 11
634.8508529610228
 21
28.80699978484844
 31
0.0
  0
LINE
  5
481
330
1F
100
AcDbEntity
  8
LAY-1
  6
CONTINUOUS
 62
     3
100
AcDbLine
 10
641.2017059221348
 20
36.58517437789057
 30
0.0
 11
634.8508529610228
 21
28.80699978484844
 31
0.0
  0
LINE
  5
482
330
1F
100
AcDbEntity
  8
LAY-1
  6
CONTINUOUS
 62
     3
100
AcDbLine
 10
634.8508529610223
 20
44.36334897096932
 30
0.0
 11
641.2017059221329
 21
36.58517437788813
 31
0.0
  0
LINE
  5
483
330
1F
100
AcDbEntity
  8
LAY-1
  6
CONTINUOUS
 62
     3
100
AcDbLine
 10
641.2017059221303
 20
42.94913540859104
 30
0.0
 11
641.2017059221303
 21
36.58517437789103
 31
0.0
  0
LINE
  5
484
330
1F
100
AcDbEntity
  8
LAY-1
  6
CONTINUOUS
 62
     3
100
AcDbLine
 10
634.8508529610302
 20
50.72731000165103
 30
0.0
 11
641.2017059221303
 21
42.94913540859104
 31
0.0
  0
LINE
  5
485
330
1F
100
AcDbEntity
  8
LAY-1
  6
CONTINUOUS
 62
     3
100
AcDbLine
 10
634.8508529610302
 20
50.72731000165103
 30
0.0
 11
634.8508529610302
 21
44.36334897097102
 31
0.0
  0
LINE
  5
486
330
1F
100
AcDbEntity
  8
LAY-1
  6
CONTINUOUS
 62
     3
100
AcDbLine
 10
622.1491470388702
 20
50.72731000165103
 30
0.0
 11
622.1491470388702
 21
44.36334897097102
 31
0.0
  0
LINE
  5
487
330
1F
100
AcDbEntity
  8
LAY-1
  6
CONTINUOUS
 62
     3
100
AcDbLine
 10
615.7982940777702
 20
42.94913540859104
 30
0.0
 11
615.7982940777702
 21
36.58517437789103
 31
0.0
  0
POLYLINE
  5
488
330
1F
100
AcDbEntity
  8
LAY-1
  6
CONTINUOUS
 62
     3
100
AcDb2dPolyline
 66
     1
 10
0.0
 20
0.0
 30
0.0
 70
   128
  0
VERTEX
  5
489
330
488
100
AcDbEntity
  8
LAY-1
  6
CONTINUOUS
 62
     3
100
AcDbVertex
100
AcDb2dVertex
 10
617.4999999999513
 20
36.5851743779153
 30
0.0
  0
VERTEX
  5
48A
330
488
100
AcDbEntity
  8
LAY-1
  6
CONTINUOUS
 62
     3
100
AcDbVertex
100
AcDb2dVertex
 10
617.5021203546484
 20
36.73788866578004
 30
0.0
  0
VERTEX
  5
48B
330
488
100
AcDbEntity
  8
LAY-1
  6
CONTINUOUS
 62
     3
100
AcDbVertex
100
AcDb2dVertex
 10
617.5084806013028
 20
36.89054407937973
 30
0.0
  0
VERTEX
  5
48C
330
488
100
AcDbEntity
  8
LAY-1
  6
CONTINUOUS
 62
     3
100
AcDbVertex
100
AcDb2dVertex
 10
617.5190782879188
 20
37.04308176714644
 30
0.0
  0
VERTEX
  5
48D
330
488
100
AcDbEntity
  8
LAY-1
  6
CONTINUOUS
 62
     3
100
AcDbVertex
100
AcDb2dVertex
 10
617.533909328886
 20
37.19544292289802
 30
0.0
  0
VERTEX
  5
48E
330
488
100
AcDbEntity
  8
LAY-1
  6
CONTINUOUS
 62
     3
100
AcDbVertex
100
AcDb2dVertex
 10
617.552968006556
 20
37.3475688085086
 30
0.0
  0
VERTEX
  5
48F
330
488
100
AcDbEntity
  8
LAY-1
  6
CONTINUOUS
 62
     3
100
AcDbVertex
100
AcDb2dVertex
 10
617.5762469734454
 20
37.49940077655318
 30
0.0
  0
VERTEX
  5
490
330
488
100
AcDbEntity
  8
LAY-1
  6
CONTINUOUS
 62
     3
100
AcDbVertex
100
AcDb2dVertex
 10
617.6037372550701
 20
37.65088029291817
 30
0.0
  0
VERTEX
  5
491
330
488
100
AcDbEntity
  8
LAY-1
  6
CONTINUOUS
 62
     3
100
AcDbVertex
100
AcDb2dVertex
 10
617.6354282534024
 20
37.80194895936611
 30
0.0
  0
VERTEX
  5
492
330
488
100
AcDbEntity
  8
LAY-1
  6
CONTINUOUS
 62
     3
100
AcDbVertex
100
AcDb2dVertex
 10
617.67130775096
 20
37.95254853605061
 30
0.0
  0
VERTEX
  5
493
330
488
100
AcDbEntity
  8
LAY-1
  6
CONTINUOUS
 62
     3
100
AcDbVertex
100
AcDb2dVertex
 10
617.7113619155127
 20
38.10262096396806
 30
0.0
  0
VERTEX
  5
494
330
488
100
AcDbEntity
  8
LAY-1
  6
CONTINUOUS
 62
     3
100
AcDbVertex
100
AcDb2dVertex
 10
617.7555753054182
 20
38.25210838734071
 30
0.0
  0
VERTEX
  5
495
330
488
100
AcDbEntity
  8
LAY-1
  6
CONTINUOUS
 62
     3
100
AcDbVertex
100
AcDb2dVertex
 10
617.8039308755732
 20
38.40095317592098
 30
0.0
  0
VERTEX
  5
496
330
488
100
AcDbEntity
  8
LAY-1
  6
CONTINUOUS
 62
     3
100
AcDbVertex
100
AcDb2dVertex
 10
617.8564099839841
 20
38.54909794720995
 30
0.0
  0
VERTEX
  5
497
330
488
100
AcDbEntity
  8
LAY-1
  6
CONTINUOUS
 62
     3
100
AcDbVertex
100
AcDb2dVertex
 10
617.9129923989565
 20
38.69648558857781
 30
0.0
  0
VERTEX
  5
498
330
488
100
AcDbEntity
  8
LAY-1
  6
CONTINUOUS
 62
     3
100
AcDbVertex
100
AcDb2dVertex
 10
617.9736563068918
 20
38.84305927928337
 30
0.0
  0
VERTEX
  5
499
330
488
100
AcDbEntity
  8
LAY-1
  6
CONTINUOUS
 62
     3
100
AcDbVertex
100
AcDb2dVertex
 10
618.0383783206989
 20
38.98876251237871
 30
0.0
  0
VERTEX
  5
49A
330
488
100
AcDbEntity
  8
LAY-1
  6
CONTINUOUS
 62
     3
100
AcDbVertex
100
AcDb2dVertex
 10
618.1071334888095
 20
39.13353911649366
 30
0.0
  0
VERTEX
  5
49B
330
488
100
AcDbEntity
  8
LAY-1
  6
CONTINUOUS
 62
     3
100
AcDbVertex
100
AcDb2dVertex
 10
618.1798953047975
 20
39.27733327749169
 30
0.0
  0
VERTEX
  5
49C
330
488
100
AcDbEntity
  8
LAY-1
  6
CONTINUOUS
 62
     3
100
AcDbVertex
100
AcDb2dVertex
 10
618.2566357175974
 20
39.42008955998633
 30
0.0
  0
VERTEX
  5
49D
330
488
100
AcDbEntity
  8
LAY-1
  6
CONTINUOUS
 62
     3
100
AcDbVertex
100
AcDb2dVertex
 10
618.3373251423196
 20
39.56175292871315
 30
0.0
  0
VERTEX
  5
49E
330
488
100
AcDbEntity
  8
LAY-1
  6
CONTINUOUS
 62
     3
100
AcDbVertex
100
AcDb2dVertex
 10
618.4219324716548
 20
39.702268769747
 30
0.0
  0
VERTEX
  5
49F
330
488
100
AcDbEntity
  8
LAY-1
  6
CONTINUOUS
 62
     3
100
AcDbVertex
100
AcDb2dVertex
 10
618.5104250878669
 20
39.84158291155605
 30
0.0
  0
VERTEX
  5
4A0
330
488
100
AcDbEntity
  8
LAY-1
  6
CONTINUOUS
 62
     3
100
AcDbVertex
100
AcDb2dVertex
 10
618.6027688753679
 20
39.97964164588702
 30
0.0
  0
VERTEX
  5
4A1
330
488
100
AcDbEntity
  8
LAY-1
  6
CONTINUOUS
 62
     3
100
AcDbVertex
100
AcDb2dVertex
 10
618.6989282338697
 20
40.1163917484695
 30
0.0
  0
VERTEX
  5
4A2
330
488
100
AcDbEntity
  8
LAY-1
  6
CONTINUOUS
 62
     3
100
AcDbVertex
100
AcDb2dVertex
 10
618.7988660921092
 20
40.25178049953583
 30
0.0
  0
VERTEX
  5
4A3
330
488
100
AcDbEntity
  8
LAY-1
  6
CONTINUOUS
 62
     3
100
AcDbVertex
100
AcDb2dVertex
 10
618.9025439221399
 20
40.38575570414516
 30
0.0
  0
VERTEX
  5
4A4
330
488
100
AcDbEntity
  8
LAY-1
  6
CONTINUOUS
 62
     3
100
AcDbVertex
100
AcDb2dVertex
 10
619.0099217541843
 20
40.51826571230591
 30
0.0
  0
VERTEX
  5
4A5
330
488
100
AcDbEntity
  8
LAY-1
  6
CONTINUOUS
 62
     3
100
AcDbVertex
100
AcDb2dVertex
 10
619.1209581920446
 20
40.64925943888735
 30
0.0
  0
VERTEX
  5
4A6
330
488
100
AcDbEntity
  8
LAY-1
  6
CONTINUOUS
 62
     3
100
AcDbVertex
100
AcDb2dVertex
 10
619.2356104290598
 20
40.77868638331457
 30
0.0
  0
VERTEX
  5
4A7
330
488
100
AcDbEntity
  8
LAY-1
  6
CONTINUOUS
 62
     3
100
AcDbVertex
100
AcDb2dVertex
 10
619.3538342646104
 20
40.90649664903659
 30
0.0
  0
VERTEX
  5
4A8
330
488
100
AcDbEntity
  8
LAY-1
  6
CONTINUOUS
 62
     3
100
AcDbVertex
100
AcDb2dVertex
 10
619.4755841211571
 20
41.03264096276282
 30
0.0
  0
VERTEX
  5
4A9
330
488
100
AcDbEntity
  8
LAY-1
  6
CONTINUOUS
 62
     3
100
AcDbVertex
100
AcDb2dVertex
 10
619.6008130618128
 20
41.15707069345935
 30
0.0
  0
VERTEX
  5
4AA
330
488
100
AcDbEntity
  8
LAY-1
  6
CONTINUOUS
 62
     3
100
AcDbVertex
100
AcDb2dVertex
 10
619.729472808437
 20
41.27973787109604
 30
0.0
  0
VERTEX
  5
4AB
330
488
100
AcDbEntity
  8
LAY-1
  6
CONTINUOUS
 62
     3
100
AcDbVertex
100
AcDb2dVertex
 10
619.861513760248
 20
41.40059520514117
 30
0.0
  0
VERTEX
  5
4AC
330
488
100
AcDbEntity
  8
LAY-1
  6
CONTINUOUS
 62
     3
100
AcDbVertex
100
AcDb2dVertex
 10
619.9968850129455
 20
41.5195961027916
 30
0.0
  0
VERTEX
  5
4AD
330
488
100
AcDbEntity
  8
LAY-1
  6
CONTINUOUS
 62
     3
100
AcDbVertex
100
AcDb2dVertex
 10
620.1355343783349
 20
41.63669468693606
 30
0.0
  0
VERTEX
  5
4AE
330
488
100
AcDbEntity
  8
LAY-1
  6
CONTINUOUS
 62
     3
100
AcDbVertex
100
AcDb2dVertex
 10
620.2774084044461
 20
41.75184581384141
 30
0.0
  0
VERTEX
  5
4AF
330
488
100
AcDbEntity
  8
LAY-1
  6
CONTINUOUS
 62
     3
100
AcDbVertex
100
AcDb2dVertex
 10
620.4224523961414
 20
41.86500509055619
 30
0.0
  0
VERTEX
  5
4B0
330
488
100
AcDbEntity
  8
LAY-1
  6
CONTINUOUS
 62
     3
100
AcDbVertex
100
AcDb2dVertex
 10
620.5706104362014
 20
41.97612889202494
 30
0.0
  0
VERTEX
  5
4B1
330
488
100
AcDbEntity
  8
LAY-1
  6
CONTINUOUS
 62
     3
100
AcDbVertex
100
AcDb2dVertex
 10
620.7218254068811
 20
42.085174377907
 30
0.0
  0
VERTEX
  5
4B2
330
488
100
AcDbEntity
  8
LAY-1
  6
CONTINUOUS
 62
     3
100
AcDbVertex
100
AcDb2dVertex
 10
620.8760390119305
 20
42.19209950909194
 30
0.0
  0
VERTEX
  5
4B3
330
488
100
AcDbEntity
  8
LAY-1
  6
CONTINUOUS
 62
     3
100
AcDbVertex
100
AcDb2dVertex
 10
621.0331917990695
 20
42.29686306390604
 30
0.0
  0
VERTEX
  5
4B4
330
488
100
AcDbEntity
  8
LAY-1
  6
CONTINUOUS
 62
     3
100
AcDbVertex
100
AcDb2dVertex
 10
621.1932231829076
 20
42.39942465400454
 30
0.0
  0
VERTEX
  5
4B5
330
488
100
AcDbEntity
  8
LAY-1
  6
CONTINUOUS
 62
     3
100
AcDbVertex
100
AcDb2dVertex
 10
621.3560714682991
 20
42.49974473994248
 30
0.0
  0
VERTEX
  5
4B6
330
488
100
AcDbEntity
  8
LAY-1
  6
CONTINUOUS
 62
     3
100
AcDbVertex
100
AcDb2dVertex
 10
621.5216738741306
 20
42.59778464641695
 30
0.0
  0
VERTEX
  5
4B7
330
488
100
AcDbEntity
  8
LAY-1
  6
CONTINUOUS
 62
     3
100
AcDbVertex
100
AcDb2dVertex
 10
621.689966557522
 20
42.69350657717759
 30
0.0
  0
VERTEX
  5
4B8
330
488
100
AcDbEntity
  8
LAY-1
  6
CONTINUOUS
 62
     3
100
AcDbVertex
100
AcDb2dVertex
 10
621.8608846384403
 20
42.78687362959797
 30
0.0
  0
VERTEX
  5
4B9
330
488
100
AcDbEntity
  8
LAY-1
  6
CONTINUOUS
 62
     3
100
AcDbVertex
100
AcDb2dVertex
 10
622.034362224712
 20
42.87784980890213
 30
0.0
  0
VERTEX
  5
4BA
330
488
100
AcDbEntity
  8
LAY-1
  6
CONTINUOUS
 62
     3
100
AcDbVertex
100
AcDb2dVertex
 10
622.2103324374251
 20
42.96640004204109
 30
0.0
  0
VERTEX
  5
4BB
330
488
100
AcDbEntity
  8
LAY-1
  6
CONTINUOUS
 62
     3
100
AcDbVertex
100
AcDb2dVertex
 10
622.3887274367129
 20
43.05249019121432
 30
0.0
  0
VERTEX
  5
4BC
330
488
100
AcDbEntity
  8
LAY-1
  6
CONTINUOUS
 62
     3
100
AcDbVertex
100
AcDb2dVertex
 10
622.569478447907
 20
43.13608706703055
 30
0.0
  0
VERTEX
  5
4BD
330
488
100
AcDbEntity
  8
LAY-1
  6
CONTINUOUS
 62
     3
100
AcDbVertex
100
AcDb2dVertex
 10
622.7525157880523
 20
43.21715844130275
 30
0.0
  0
VERTEX
  5
4BE
330
488
100
AcDbEntity
  8
LAY-1
  6
CONTINUOUS
 62
     3
100
AcDbVertex
100
AcDb2dVertex
 10
622.9377688927696
 20
43.29567305947298
 30
0.0
  0
VERTEX
  5
4BF
330
488
100
AcDbEntity
  8
LAY-1
  6
CONTINUOUS
 62
     3
100
AcDbVertex
100
AcDb2dVertex
 10
623.1251663434606
 20
43.37160065266132
 30
0.0
  0
VERTEX
  5
4C0
330
488
100
AcDbEntity
  8
LAY-1
  6
CONTINUOUS
 62
     3
100
AcDbVertex
100
AcDb2dVertex
 10
623.3146358948406
 20
43.44491194933524
 30
0.0
  0
VERTEX
  5
4C1
330
488
100
AcDbEntity
  8
LAY-1
  6
CONTINUOUS
 62
     3
100
AcDbVertex
100
AcDb2dVertex
 10
623.5061045027915
 20
43.51557868659429
 30
0.0
  0
VERTEX
  5
4C2
330
488
100
AcDbEntity
  8
LAY-1
  6
CONTINUOUS
 62
     3
100
AcDbVertex
100
AcDb2dVertex
 10
623.6994983525194
 20
43.58357362106599
 30
0.0
  0
VERTEX
  5
4C3
330
488
100
AcDbEntity
  8
LAY-1
  6
CONTINUOUS
 62
     3
100
AcDbVertex
100
AcDb2dVertex
 10
623.8947428870143
 20
43.64887053940893
 30
0.0
  0
VERTEX
  5
4C4
330
488
100
AcDbEntity
  8
LAY-1
  6
CONTINUOUS
 62
     3
100
AcDbVertex
100
AcDb2dVertex
 10
624.091762835791
 20
43.71144426841797
 30
0.0
  0
VERTEX
  5
4C5
330
488
100
AcDbEntity
  8
LAY-1
  6
CONTINUOUS
 62
     3
100
AcDbVertex
100
AcDb2dVertex
 10
624.2904822439095
 20
43.77127068472944
 30
0.0
  0
VERTEX
  5
4C6
330
488
100
AcDbEntity
  8
LAY-1
  6
CONTINUOUS
 62
     3
100
AcDbVertex
100
AcDb2dVertex
 10
624.4908245012547
 20
43.82832672412112
 30
0.0
  0
VERTEX
  5
4C7
330
488
100
AcDbEntity
  8
LAY-1
  6
CONTINUOUS
 62
     3
100
AcDbVertex
100
AcDb2dVertex
 10
624.6927123720727
 20
43.88259039040357
 30
0.0
  0
VERTEX
  5
4C8
330
488
100
AcDbEntity
  8
LAY-1
  6
CONTINUOUS
 62
     3
100
AcDbVertex
100
AcDb2dVertex
 10
624.8960680247462
 20
43.93404076390063
 30
0.0
  0
VERTEX
  5
4C9
330
488
100
AcDbEntity
  8
LAY-1
  6
CONTINUOUS
 62
     3
100
AcDbVertex
100
AcDb2dVertex
 10
625.1008130618004
 20
43.98265800951369
 30
0.0
  0
VERTEX
  5
4CA
330
488
100
AcDbEntity
  8
LAY-1
  6
CONTINUOUS
 62
     3
100
AcDbVertex
100
AcDb2dVertex
 10
625.3068685501256
 20
44.02842338436934
 30
0.0
  0
VERTEX
  5
4CB
330
488
100
AcDbEntity
  8
LAY-1
  6
CONTINUOUS
 62
     3
100
AcDbVertex
100
AcDb2dVertex
 10
625.5141550514087
 20
44.07131924504423
 30
0.0
  0
VERTEX
  5
4CC
330
488
100
AcDbEntity
  8
LAY-1
  6
CONTINUOUS
 62
     3
100
AcDbVertex
100
AcDb2dVertex
 10
625.722592652758
 20
44.11132905436764
 30
0.0
  0
VERTEX
  5
4CD
330
488
100
AcDbEntity
  8
LAY-1
  6
CONTINUOUS
 62
     3
100
AcDbVertex
100
AcDb2dVertex
 10
625.9321009975095
 20
44.14843738779634
 30
0.0
  0
VERTEX
  5
4CE
330
488
100
AcDbEntity
  8
LAY-1
  6
CONTINUOUS
 62
     3
100
AcDbVertex
100
AcDb2dVertex
 10
626.1425993162087
 20
44.18262993936141
 30
0.0
  0
VERTEX
  5
4CF
330
488
100
AcDbEntity
  8
LAY-1
  6
CONTINUOUS
 62
     3
100
AcDbVertex
100
AcDb2dVertex
 10
626.3540064577469
 20
44.21389352718338
 30
0.0
  0
VERTEX
  5
4D0
330
488
100
AcDbEntity
  8
LAY-1
  6
CONTINUOUS
 62
     3
100
AcDbVertex
100
AcDb2dVertex
 10
626.5662409206464
 20
44.24221609855393
 30
0.0
  0
VERTEX
  5
4D1
330
488
100
AcDbEntity
  8
LAY-1
  6
CONTINUOUS
 62
     3
100
AcDbVertex
100
AcDb2dVertex
 10
626.7792208844819
 20
44.26758673458269
 30
0.0
  0
VERTEX
  5
4D2
330
488
100
AcDbEntity
  8
LAY-1
  6
CONTINUOUS
 62
     3
100
AcDbVertex
100
AcDb2dVertex
 10
626.9928642414229
 20
44.28999565440662
 30
0.0
  0
VERTEX
  5
4D3
330
488
100
AcDbEntity
  8
LAY-1
  6
CONTINUOUS
 62
     3
100
AcDbVertex
100
AcDb2dVertex
 10
627.2070886278883
 20
44.3094342189606
 30
0.0
  0
VERTEX
  5
4D4
330
488
100
AcDbEntity
  8
LAY-1
  6
CONTINUOUS
 62
     3
100
AcDbVertex
100
AcDb2dVertex
 10
627.4218114562995
 20
44.32589493430773
 30
0.0
  0
VERTEX
  5
4D5
330
488
100
AcDbEntity
  8
LAY-1
  6
CONTINUOUS
 62
     3
100
AcDbVertex
100
AcDb2dVertex
 10
627.6369499469184
 20
44.33937145452901
 30
0.0
  0
VERTEX
  5
4D6
330
488
100
AcDbEntity
  8
LAY-1
  6
CONTINUOUS
 62
     3
100
AcDbVertex
100
AcDb2dVertex
 10
627.8524211597619
 20
44.34985858416925
 30
0.0
  0
VERTEX
  5
4D7
330
488
100
AcDbEntity
  8
LAY-1
  6
CONTINUOUS
 62
     3
100
AcDbVertex
100
AcDb2dVertex
 10
628.0681420265754
 20
44.35735228024057
 30
0.0
  0
VERTEX
  5
4D8
330
488
100
AcDbEntity
  8
LAY-1
  6
CONTINUOUS
 62
     3
100
AcDbVertex
100
AcDb2dVertex
 10
628.2840293828583
 20
44.36184965378046
 30
0.0
  0
VERTEX
  5
4D9
330
488
100
AcDbEntity
  8
LAY-1
  6
CONTINUOUS
 62
     3
100
AcDbVertex
100
AcDb2dVertex
 10
628.4999999999255
 20
44.36334897096557
 30
0.0
  0
VERTEX
  5
4DA
330
488
100
AcDbEntity
  8
LAY-1
  6
CONTINUOUS
 62
     3
100
AcDbVertex
100
AcDb2dVertex
 10
628.7159706169928
 20
44.36184965378074
 30
0.0
  0
VERTEX
  5
4DB
330
488
100
AcDbEntity
  8
LAY-1
  6
CONTINUOUS
 62
     3
100
AcDbVertex
100
AcDb2dVertex
 10
628.9318579732757
 20
44.35735228024136
 30
0.0
  0
VERTEX
  5
4DC
330
488
100
AcDbEntity
  8
LAY-1
  6
CONTINUOUS
 62
     3
100
AcDbVertex
100
AcDb2dVertex
 10
629.1475788400892
 20
44.34985858417038
 30
0.0
  0
VERTEX
  5
4DD
330
488
100
AcDbEntity
  8
LAY-1
  6
CONTINUOUS
 62
     3
100
AcDbVertex
100
AcDb2dVertex
 10
629.3630500529327
 20
44.33937145453037
 30
0.0
  0
VERTEX
  5
4DE
330
488
100
AcDbEntity
  8
LAY-1
  6
CONTINUOUS
 62
     3
100
AcDbVertex
100
AcDb2dVertex
 10
629.578188543552
 20
44.3258949343095
 30
0.0
  0
VERTEX
  5
4DF
330
488
100
AcDbEntity
  8
LAY-1
  6
CONTINUOUS
 62
     3
100
AcDbVertex
100
AcDb2dVertex
 10
629.7929113719633
 20
44.30943421896264
 30
0.0
  0
VERTEX
  5
4E0
330
488
100
AcDbEntity
  8
LAY-1
  6
CONTINUOUS
 62
     3
100
AcDbVertex
100
AcDb2dVertex
 10
630.0071357584291
 20
44.28999565440923
 30
0.0
  0
VERTEX
  5
4E1
330
488
100
AcDbEntity
  8
LAY-1
  6
CONTINUOUS
 62
     3
100
AcDbVertex
100
AcDb2dVertex
 10
630.2207791153703
 20
44.26758673458558
 30
0.0
  0
VERTEX
  5
4E2
330
488
100
AcDbEntity
  8
LAY-1
  6
CONTINUOUS
 62
     3
100
AcDbVertex
100
AcDb2dVertex
 10
630.433759079206
 20
44.24221609855706
 30
0.0
  0
VERTEX
  5
4E3
330
488
100
AcDbEntity
  8
LAY-1
  6
CONTINUOUS
 62
     3
100
AcDbVertex
100
AcDb2dVertex
 10
630.645993542106
 20
44.21389352718679
 30
0.0
  0
VERTEX
  5
4E4
330
488
100
AcDbEntity
  8
LAY-1
  6
CONTINUOUS
 62
     3
100
AcDbVertex
100
AcDb2dVertex
 10
630.8574006836444
 20
44.18262993936522
 30
0.0
  0
VERTEX
  5
4E5
330
488
100
AcDbEntity
  8
LAY-1
  6
CONTINUOUS
 62
     3
100
AcDbVertex
100
AcDb2dVertex
 10
631.0678990023442
 20
44.14843738780049
 30
0.0
  0
VERTEX
  5
4E6
330
488
100
AcDbEntity
  8
LAY-1
  6
CONTINUOUS
 62
     3
100
AcDbVertex
100
AcDb2dVertex
 10
631.2774073470965
 20
44.11132905437207
 30
0.0
  0
VERTEX
  5
4E7
330
488
100
AcDbEntity
  8
LAY-1
  6
CONTINUOUS
 62
     3
100
AcDbVertex
100
AcDb2dVertex
 10
631.4858449484459
 20
44.07131924504895
 30
0.0
  0
VERTEX
  5
4E8
330
488
100
AcDbEntity
  8
LAY-1
  6
CONTINUOUS
 62
     3
100
AcDbVertex
100
AcDb2dVertex
 10
631.6931314497299
 20
44.02842338437429
 30
0.0
  0
VERTEX
  5
4E9
330
488
100
AcDbEntity
  8
LAY-1
  6
CONTINUOUS
 62
     3
100
AcDbVertex
100
AcDb2dVertex
 10
631.8991869380554
 20
43.98265800951904
 30
0.0
  0
VERTEX
  5
4EA
330
488
100
AcDbEntity
  8
LAY-1
  6
CONTINUOUS
 62
     3
100
AcDbVertex
100
AcDb2dVertex
 10
632.1039319751101
 20
43.93404076390615
 30
0.0
  0
VERTEX
  5
4EB
330
488
100
AcDbEntity
  8
LAY-1
  6
CONTINUOUS
 62
     3
100
AcDbVertex
100
AcDb2dVertex
 10
632.3072876277845
 20
43.88259039040926
 30
0.0
  0
VERTEX
  5
4EC
330
488
100
AcDbEntity
  8
LAY-1
  6
CONTINUOUS
 62
     3
100
AcDbVertex
100
AcDb2dVertex
 10
632.5091754986032
 20
43.82832672412709
 30
0.0
  0
VERTEX
  5
4ED
330
488
100
AcDbEntity
  8
LAY-1
  6
CONTINUOUS
 62
     3
100
AcDbVertex
100
AcDb2dVertex
 10
632.709517755949
 20
43.77127068473558
 30
0.0
  0
VERTEX
  5
4EE
330
488
100
AcDbEntity
  8
LAY-1
  6
CONTINUOUS
 62
     3
100
AcDbVertex
100
AcDb2dVertex
 10
632.908237164068
 20
43.71144426842422
 30
0.0
  0
VERTEX
  5
4EF
330
488
100
AcDbEntity
  8
LAY-1
  6
CONTINUOUS
 62
     3
100
AcDbVertex
100
AcDb2dVertex
 10
633.1052571128458
 20
43.64887053941535
 30
0.0
  0
VERTEX
  5
4F0
330
488
100
AcDbEntity
  8
LAY-1
  6
CONTINUOUS
 62
     3
100
AcDbVertex
100
AcDb2dVertex
 10
633.3005016473413
 20
43.58357362107258
 30
0.0
  0
VERTEX
  5
4F1
330
488
100
AcDbEntity
  8
LAY-1
  6
CONTINUOUS
 62
     3
100
AcDbVertex
100
AcDb2dVertex
 10
633.4938954970701
 20
43.51557868660094
 30
0.0
  0
VERTEX
  5
4F2
330
488
100
AcDbEntity
  8
LAY-1
  6
CONTINUOUS
 62
     3
100
AcDbVertex
100
AcDb2dVertex
 10
633.6853641050217
 20
43.44491194934195
 30
0.0
  0
VERTEX
  5
4F3
330
488
100
AcDbEntity
  8
LAY-1
  6
CONTINUOUS
 62
     3
100
AcDbVertex
100
AcDb2dVertex
 10
633.8748336564026
 20
43.37160065266826
 30
0.0
  0
VERTEX
  5
4F4
330
488
100
AcDbEntity
  8
LAY-1
  6
CONTINUOUS
 62
     3
100
AcDbVertex
100
AcDb2dVertex
 10
634.0622311070946
 20
43.29567305947986
 30
0.0
  0
VERTEX
  5
4F5
330
488
100
AcDbEntity
  8
LAY-1
  6
CONTINUOUS
 62
     3
100
AcDbVertex
100
AcDb2dVertex
 10
634.2474842118129
 20
43.21715844130963
 30
0.0
  0
VERTEX
  5
4F6
330
488
100
AcDbEntity
  8
LAY-1
  6
CONTINUOUS
 62
     3
100
AcDbVertex
100
AcDb2dVertex
 10
634.4305215519589
 20
43.13608706703737
 30
0.0
  0
VERTEX
  5
4F7
330
488
100
AcDbEntity
  8
LAY-1
  6
CONTINUOUS
 62
     3
100
AcDbVertex
100
AcDb2dVertex
 10
634.6112725631541
 20
43.0524901912212
 30
0.0
  0
VERTEX
  5
4F8
330
488
100
AcDbEntity
  8
LAY-1
  6
CONTINUOUS
 62
     3
100
AcDbVertex
100
AcDb2dVertex
 10
634.7896675624427
 20
42.96640004204797
 30
0.0
  0
VERTEX
  5
4F9
330
488
100
AcDbEntity
  8
LAY-1
  6
CONTINUOUS
 62
     3
100
AcDbVertex
100
AcDb2dVertex
 10
634.9656377751568
 20
42.8778498089089
 30
0.0
  0
VERTEX
  5
4FA
330
488
100
AcDbEntity
  8
LAY-1
  6
CONTINUOUS
 62
     3
100
AcDbVertex
100
AcDb2dVertex
 10
635.1391153614293
 20
42.78687362960473
 30
0.0
  0
VERTEX
  5
4FB
330
488
100
AcDbEntity
  8
LAY-1
  6
CONTINUOUS
 62
     3
100
AcDbVertex
100
AcDb2dVertex
 10
635.3100334423489
 20
42.6935065771843
 30
0.0
  0
VERTEX
  5
4FC
330
488
100
AcDbEntity
  8
LAY-1
  6
CONTINUOUS
 62
     3
100
AcDbVertex
100
AcDb2dVertex
 10
635.4783261257413
 20
42.5977846464236
 30
0.0
  0
VERTEX
  5
4FD
330
488
100
AcDbEntity
  8
LAY-1
  6
CONTINUOUS
 62
     3
100
AcDbVertex
100
AcDb2dVertex
 10
635.6439285315738
 20
42.49974473994902
 30
0.0
  0
VERTEX
  5
4FE
330
488
100
AcDbEntity
  8
LAY-1
  6
CONTINUOUS
 62
     3
100
AcDbVertex
100
AcDb2dVertex
 10
635.8067768169662
 20
42.39942465401091
 30
0.0
  0
VERTEX
  5
4FF
330
488
100
AcDbEntity
  8
LAY-1
  6
CONTINUOUS
 62
     3
100
AcDbVertex
100
AcDb2dVertex
 10
635.966808200805
 20
42.29686306391206
 30
0.0
  0
VERTEX
  5
500
330
488
100
AcDbEntity
  8
LAY-1
  6
CONTINUOUS
 62
     3
100
AcDbVertex
100
AcDb2dVertex
 10
636.1239609879452
 20
42.19209950909779
 30
0.0
  0
VERTEX
  5
501
330
488
100
AcDbEntity
  8
LAY-1
  6
CONTINUOUS
 62
     3
100
AcDbVertex
100
AcDb2dVertex
 10
636.2781745929957
 20
42.08517437791274
 30
0.0
  0
VERTEX
  5
502
330
488
100
AcDbEntity
  8
LAY-1
  6
CONTINUOUS
 62
     3
100
AcDbVertex
100
AcDb2dVertex
 10
636.4293895636764
 20
41.97612889203034
 30
0.0
  0
VERTEX
  5
503
330
488
100
AcDbEntity
  8
LAY-1
  6
CONTINUOUS
 62
     3
100
AcDbVertex
100
AcDb2dVertex
 10
636.5775476037373
 20
41.86500509056125
 30
0.0
  0
VERTEX
  5
504
330
488
100
AcDbEntity
  8
LAY-1
  6
CONTINUOUS
 62
     3
100
AcDbVertex
100
AcDb2dVertex
 10
636.722591595434
 20
41.75184581384618
 30
0.0
  0
VERTEX
  5
505
330
488
100
AcDbEntity
  8
LAY-1
  6
CONTINUOUS
 62
     3
100
AcDbVertex
100
AcDb2dVertex
 10
636.864465621546
 20
41.63669468694066
 30
0.0
  0
VERTEX
  5
506
330
488
100
AcDbEntity
  8
LAY-1
  6
CONTINUOUS
 62
     3
100
AcDbVertex
100
AcDb2dVertex
 10
637.0031149869362
 20
41.5195961027957
 30
0.0
  0
VERTEX
  5
507
330
488
100
AcDbEntity
  8
LAY-1
  6
CONTINUOUS
 62
     3
100
AcDbVertex
100
AcDb2dVertex
 10
637.138486239635
 20
41.4005952051448
 30
0.0
  0
VERTEX
  5
508
330
488
100
AcDbEntity
  8
LAY-1
  6
CONTINUOUS
 62
     3
100
AcDbVertex
100
AcDb2dVertex
 10
637.2705271914468
 20
41.27973787109939
 30
0.0
  0
VERTEX
  5
509
330
488
100
AcDbEntity
  8
LAY-1
  6
CONTINUOUS
 62
     3
100
AcDbVertex
100
AcDb2dVertex
 10
637.3991869380718
 20
41.1570706934622
 30
0.0
  0
VERTEX
  5
50A
330
488
100
AcDbEntity
  8
LAY-1
  6
CONTINUOUS
 62
     3
100
AcDbVertex
100
AcDb2dVertex
 10
637.5244158787285
 20
41.03264096276526
 30
0.0
  0
VERTEX
  5
50B
330
488
100
AcDbEntity
  8
LAY-1
  6
CONTINUOUS
 62
     3
100
AcDbVertex
100
AcDb2dVertex
 10
637.6461657352763
 20
40.90649664903852
 30
0.0
  0
VERTEX
  5
50C
330
488
100
AcDbEntity
  8
LAY-1
  6
CONTINUOUS
 62
     3
100
AcDbVertex
100
AcDb2dVertex
 10
637.7643895708278
 20
40.77868638331616
 30
0.0
  0
VERTEX
  5
50D
330
488
100
AcDbEntity
  8
LAY-1
  6
CONTINUOUS
 62
     3
100
AcDbVertex
100
AcDb2dVertex
 10
637.879041807844
 20
40.64925943888849
 30
0.0
  0
VERTEX
  5
50E
330
488
100
AcDbEntity
  8
LAY-1
  6
CONTINUOUS
 62
     3
100
AcDbVertex
100
AcDb2dVertex
 10
637.9900782457051
 20
40.51826571230642
 30
0.0
  0
VERTEX
  5
50F
330
488
100
AcDbEntity
  8
LAY-1
  6
CONTINUOUS
 62
     3
100
AcDbVertex
100
AcDb2dVertex
 10
638.0974560777506
 20
40.38575570414505
 30
0.0
  0
VERTEX
  5
510
330
488
100
AcDbEntity
  8
LAY-1
  6
CONTINUOUS
 62
     3
100
AcDbVertex
100
AcDb2dVertex
 10
638.201133907782
 20
40.25178049953521
 30
0.0
  0
VERTEX
  5
511
330
488
100
AcDbEntity
  8
LAY-1
  6
CONTINUOUS
 62
     3
100
AcDbVertex
100
AcDb2dVertex
 10
638.3010717660225
 20
40.11639174846825
 30
0.0
  0
VERTEX
  5
512
330
488
100
AcDbEntity
  8
LAY-1
  6
CONTINUOUS
 62
     3
100
AcDbVertex
100
AcDb2dVertex
 10
638.3972311245251
 20
39.97964164588526
 30
0.0
  0
VERTEX
  5
513
330
488
100
AcDbEntity
  8
LAY-1
  6
CONTINUOUS
 62
     3
100
AcDbVertex
100
AcDb2dVertex
 10
638.4895749120268
 20
39.84158291155389
 30
0.0
  0
VERTEX
  5
514
330
488
100
AcDbEntity
  8
LAY-1
  6
CONTINUOUS
 62
     3
100
AcDbVertex
100
AcDb2dVertex
 10
638.5780675282397
 20
39.70226876974404
 30
0.0
  0
VERTEX
  5
515
330
488
100
AcDbEntity
  8
LAY-1
  6
CONTINUOUS
 62
     3
100
AcDbVertex
100
AcDb2dVertex
 10
638.6626748575756
 20
39.56175292870963
 30
0.0
  0
VERTEX
  5
516
330
488
100
AcDbEntity
  8
LAY-1
  6
CONTINUOUS
 62
     3
100
AcDbVertex
100
AcDb2dVertex
 10
638.7433642822984
 20
39.42008955998201
 30
0.0
  0
VERTEX
  5
517
330
488
100
AcDbEntity
  8
LAY-1
  6
CONTINUOUS
 62
     3
100
AcDbVertex
100
AcDb2dVertex
 10
638.8201046950991
 20
39.27733327748674
 30
0.0
  0
VERTEX
  5
518
330
488
100
AcDbEntity
  8
LAY-1
  6
CONTINUOUS
 62
     3
100
AcDbVertex
100
AcDb2dVertex
 10
638.8928665110877
 20
39.13353911648803
 30
0.0
  0
VERTEX
  5
519
330
488
100
AcDbEntity
  8
LAY-1
  6
CONTINUOUS
 62
     3
100
AcDbVertex
100
AcDb2dVertex
 10
638.9616216791986
 20
38.98876251237228
 30
0.0
  0
VERTEX
  5
51A
330
488
100
AcDbEntity
  8
LAY-1
  6
CONTINUOUS
 62
     3
100
AcDbVertex
100
AcDb2dVertex
 10
639.0263436930063
 20
38.84305927927638
 30
0.0
  0
VERTEX
  5
51B
330
488
100
AcDbEntity
  8
LAY-1
  6
CONTINUOUS
 62
     3
100
AcDbVertex
100
AcDb2dVertex
 10
639.0870076009423
 20
38.69648558857013
 30
0.0
  0
VERTEX
  5
51C
330
488
100
AcDbEntity
  8
LAY-1
  6
CONTINUOUS
 62
     3
100
AcDbVertex
100
AcDb2dVertex
 10
639.1435900159153
 20
38.54909794720148
 30
0.0
  0
VERTEX
  5
51D
330
488
100
AcDbEntity
  8
LAY-1
  6
CONTINUOUS
 62
     3
100
AcDbVertex
100
AcDb2dVertex
 10
639.196069124327
 20
38.40095317591189
 30
0.0
  0
VERTEX
  5
51E
330
488
100
AcDbEntity
  8
LAY-1
  6
CONTINUOUS
 62
     3
100
AcDbVertex
100
AcDb2dVertex
 10
639.2444246944821
 20
38.25210838733081
 30
0.0
  0
VERTEX
  5
51F
330
488
100
AcDbEntity
  8
LAY-1
  6
CONTINUOUS
 62
     3
100
AcDbVertex
100
AcDb2dVertex
 10
639.2886380843879
 20
38.10262096395748
 30
0.0
  0
VERTEX
  5
520
330
488
100
AcDbEntity
  8
LAY-1
  6
CONTINUOUS
 62
     3
100
AcDbVertex
100
AcDb2dVertex
 10
639.3286922489411
 20
37.95254853603941
 30
0.0
  0
VERTEX
  5
521
330
488
100
AcDbEntity
  8
LAY-1
  6
CONTINUOUS
 62
     3
100
AcDbVertex
100
AcDb2dVertex
 10
639.3645717464988
 20
37.80194895935406
 30
0.0
  0
VERTEX
  5
522
330
488
100
AcDbEntity
  8
LAY-1
  6
CONTINUOUS
 62
     3
100
AcDbVertex
100
AcDb2dVertex
 10
639.3962627448316
 20
37.65088029290526
 30
0.0
  0
VERTEX
  5
523
330
488
100
AcDbEntity
  8
LAY-1
  6
CONTINUOUS
 62
     3
100
AcDbVertex
100
AcDb2dVertex
 10
639.4237530264563
 20
37.49940077653965
 30
0.0
  0
VERTEX
  5
524
330
488
100
AcDbEntity
  8
LAY-1
  6
CONTINUOUS
 62
     3
100
AcDbVertex
100
AcDb2dVertex
 10
639.4470319933463
 20
37.34756880849428
 30
0.0
  0
VERTEX
  5
525
330
488
100
AcDbEntity
  8
LAY-1
  6
CONTINUOUS
 62
     3
100
AcDbVertex
100
AcDb2dVertex
 10
639.4660906710163
 20
37.19544292288307
 30
0.0
  0
VERTEX
  5
526
330
488
100
AcDbEntity
  8
LAY-1
  6
CONTINUOUS
 62
     3
100
AcDbVertex
100
AcDb2dVertex
 10
639.4809217119838
 20
37.04308176713075
 30
0.0
  0
VERTEX
  5
527
330
488
100
AcDbEntity
  8
LAY-1
  6
CONTINUOUS
 62
     3
100
AcDbVertex
100
AcDb2dVertex
 10
639.4915193985996
 20
36.89054407936325
 30
0.0
  0
VERTEX
  5
528
330
488
100
AcDbEntity
  8
LAY-1
  6
CONTINUOUS
 62
     3
100
AcDbVertex
100
AcDb2dVertex
 10
639.4978796452544
 20
36.73788866576276
 30
0.0
  0
VERTEX
  5
529
330
488
100
AcDbEntity
  8
LAY-1
  6
CONTINUOUS
 62
     3
100
AcDbVertex
100
AcDb2dVertex
 10
639.4999999999513
 20
36.5851743778974
 30
0.0
  0
VERTEX
  5
52A
330
488
100
AcDbEntity
  8
LAY-1
  6
CONTINUOUS
 62
     3
100
AcDbVertex
100
AcDb2dVertex
 10
639.4978796452539
 20
36.43246009003203
 30
0.0
  0
VERTEX
  5
52B
330
488
100
AcDbEntity
  8
LAY-1
  6
CONTINUOUS
 62
     3
100
AcDbVertex
100
AcDb2dVertex
 10
639.4915193985987
 20
36.27980467643166
 30
0.0
  0
VERTEX
  5
52C
330
488
100
AcDbEntity
  8
LAY-1
  6
CONTINUOUS
 62
     3
100
AcDbVertex
100
AcDb2dVertex
 10
639.4809217119827
 20
36.12726698866415
 30
0.0
  0
VERTEX
  5
52D
330
488
100
AcDbEntity
  8
LAY-1
  6
CONTINUOUS
 62
     3
100
AcDbVertex
100
AcDb2dVertex
 10
639.4660906710149
 20
35.97490583291184
 30
0.0
  0
VERTEX
  5
52E
330
488
100
AcDbEntity
  8
LAY-1
  6
CONTINUOUS
 62
     3
100
AcDbVertex
100
AcDb2dVertex
 10
639.4470319933441
 20
35.82277994730074
 30
0.0
  0
VERTEX
  5
52F
330
488
100
AcDbEntity
  8
LAY-1
  6
CONTINUOUS
 62
     3
100
AcDbVertex
100
AcDb2dVertex
 10
639.4237530264538
 20
35.67094797925554
 30
0.0
  0
VERTEX
  5
530
330
488
100
AcDbEntity
  8
LAY-1
  6
CONTINUOUS
 62
     3
100
AcDbVertex
100
AcDb2dVertex
 10
639.3962627448287
 20
35.51946846288993
 30
0.0
  0
VERTEX
  5
531
330
488
100
AcDbEntity
  8
LAY-1
  6
CONTINUOUS
 62
     3
100
AcDbVertex
100
AcDb2dVertex
 10
639.3645717464956
 20
35.36839979644125
 30
0.0
  0
VERTEX
  5
532
330
488
100
AcDbEntity
  8
LAY-1
  6
CONTINUOUS
 62
     3
100
AcDbVertex
100
AcDb2dVertex
 10
639.3286922489375
 20
35.21780021975623
 30
0.0
  0
VERTEX
  5
533
330
488
100
AcDbEntity
  8
LAY-1
  6
CONTINUOUS
 62
     3
100
AcDbVertex
100
AcDb2dVertex
 10
639.2886380843838
 20
35.06772779183827
 30
0.0
  0
VERTEX
  5
534
330
488
100
AcDbEntity
  8
LAY-1
  6
CONTINUOUS
 62
     3
100
AcDbVertex
100
AcDb2dVertex
 10
639.2444246944775
 20
34.91824036846511
 30
0.0
  0
VERTEX
  5
535
330
488
100
AcDbEntity
  8
LAY-1
  6
CONTINUOUS
 62
     3
100
AcDbVertex
100
AcDb2dVertex
 10
639.1960691243219
 20
34.76939557988415
 30
0.0
  0
VERTEX
  5
536
330
488
100
AcDbEntity
  8
LAY-1
  6
CONTINUOUS
 62
     3
100
AcDbVertex
100
AcDb2dVertex
 10
639.1435900159098
 20
34.62125080859484
 30
0.0
  0
VERTEX
  5
537
330
488
100
AcDbEntity
  8
LAY-1
  6
CONTINUOUS
 62
     3
100
AcDbVertex
100
AcDb2dVertex
 10
639.0870076009368
 20
34.47386316722653
 30
0.0
  0
VERTEX
  5
538
330
488
100
AcDbEntity
  8
LAY-1
  6
CONTINUOUS
 62
     3
100
AcDbVertex
100
AcDb2dVertex
 10
639.0263436930004
 20
34.32728947652051
 30
0.0
  0
VERTEX
  5
539
330
488
100
AcDbEntity
  8
LAY-1
  6
CONTINUOUS
 62
     3
100
AcDbVertex
100
AcDb2dVertex
 10
638.9616216791923
 20
34.18158624342478
 30
0.0
  0
VERTEX
  5
53A
330
488
100
AcDbEntity
  8
LAY-1
  6
CONTINUOUS
 62
     3
100
AcDbVertex
100
AcDb2dVertex
 10
638.8928665110809
 20
34.03680963930932
 30
0.0
  0
VERTEX
  5
53B
330
488
100
AcDbEntity
  8
LAY-1
  6
CONTINUOUS
 62
     3
100
AcDbVertex
100
AcDb2dVertex
 10
638.820104695092
 20
33.89301547831089
 30
0.0
  0
VERTEX
  5
53C
330
488
100
AcDbEntity
  8
LAY-1
  6
CONTINUOUS
 62
     3
100
AcDbVertex
100
AcDb2dVertex
 10
638.743364282291
 20
33.75025919581608
 30
0.0
  0
VERTEX
  5
53D
330
488
100
AcDbEntity
  8
LAY-1
  6
CONTINUOUS
 62
     3
100
AcDbVertex
100
AcDb2dVertex
 10
638.6626748575678
 20
33.60859582708886
 30
0.0
  0
VERTEX
  5
53E
330
488
100
AcDbEntity
  8
LAY-1
  6
CONTINUOUS
 62
     3
100
AcDbVertex
100
AcDb2dVertex
 10
638.5780675282318
 20
33.46807998605467
 30
0.0
  0
VERTEX
  5
53F
330
488
100
AcDbEntity
  8
LAY-1
  6
CONTINUOUS
 62
     3
100
AcDbVertex
100
AcDb2dVertex
 10
638.4895749120186
 20
33.32876584424528
 30
0.0
  0
VERTEX
  5
540
330
488
100
AcDbEntity
  8
LAY-1
  6
CONTINUOUS
 62
     3
100
AcDbVertex
100
AcDb2dVertex
 10
638.3972311245166
 20
33.19070710991414
 30
0.0
  0
VERTEX
  5
541
330
488
100
AcDbEntity
  8
LAY-1
  6
CONTINUOUS
 62
     3
100
AcDbVertex
100
AcDb2dVertex
 10
638.3010717660136
 20
33.05395700733154
 30
0.0
  0
VERTEX
  5
542
330
488
100
AcDbEntity
  8
LAY-1
  6
CONTINUOUS
 62
     3
100
AcDbVertex
100
AcDb2dVertex
 10
638.2011339077729
 20
32.9185682562651
 30
0.0
  0
VERTEX
  5
543
330
488
100
AcDbEntity
  8
LAY-1
  6
CONTINUOUS
 62
     3
100
AcDbVertex
100
AcDb2dVertex
 10
638.0974560777412
 20
32.78459305165554
 30
0.0
  0
VERTEX
  5
544
330
488
100
AcDbEntity
  8
LAY-1
  6
CONTINUOUS
 62
     3
100
AcDbVertex
100
AcDb2dVertex
 10
637.9900782456956
 20
32.65208304349479
 30
0.0
  0
VERTEX
  5
545
330
488
100
AcDbEntity
  8
LAY-1
  6
CONTINUOUS
 62
     3
100
AcDbVertex
100
AcDb2dVertex
 10
637.8790418078345
 20
32.52108931691307
 30
0.0
  0
VERTEX
  5
546
330
488
100
AcDbEntity
  8
LAY-1
  6
CONTINUOUS
 62
     3
100
AcDbVertex
100
AcDb2dVertex
 10
637.7643895708181
 20
32.39166237248579
 30
0.0
  0
VERTEX
  5
547
330
488
100
AcDbEntity
  8
LAY-1
  6
CONTINUOUS
 62
     3
100
AcDbVertex
100
AcDb2dVertex
 10
637.6461657352664
 20
32.26385210676388
 30
0.0
  0
VERTEX
  5
548
330
488
100
AcDbEntity
  8
LAY-1
  6
CONTINUOUS
 62
     3
100
AcDbVertex
100
AcDb2dVertex
 10
637.5244158787185
 20
32.13770779303766
 30
0.0
  0
VERTEX
  5
549
330
488
100
AcDbEntity
  8
LAY-1
  6
CONTINUOUS
 62
     3
100
AcDbVertex
100
AcDb2dVertex
 10
637.3991869380616
 20
32.01327806234129
 30
0.0
  0
VERTEX
  5
54A
330
488
100
AcDbEntity
  8
LAY-1
  6
CONTINUOUS
 62
     3
100
AcDbVertex
100
AcDb2dVertex
 10
637.2705271914366
 20
31.89061088470449
 30
0.0
  0
VERTEX
  5
54B
330
488
100
AcDbEntity
  8
LAY-1
  6
CONTINUOUS
 62
     3
100
AcDbVertex
100
AcDb2dVertex
 10
637.1384862396244
 20
31.76975355065948
 30
0.0
  0
VERTEX
  5
54C
330
488
100
AcDbEntity
  8
LAY-1
  6
CONTINUOUS
 62
     3
100
AcDbVertex
100
AcDb2dVertex
 10
637.0031149869257
 20
31.65075265300921
 30
0.0
  0
VERTEX
  5
54D
330
488
100
AcDbEntity
  8
LAY-1
  6
CONTINUOUS
 62
     3
100
AcDbVertex
100
AcDb2dVertex
 10
636.8644656215353
 20
31.53365406886487
 30
0.0
  0
VERTEX
  5
54E
330
488
100
AcDbEntity
  8
LAY-1
  6
CONTINUOUS
 62
     3
100
AcDbVertex
100
AcDb2dVertex
 10
636.7225915954232
 20
31.41850294195975
 30
0.0
  0
VERTEX
  5
54F
330
488
100
AcDbEntity
  8
LAY-1
  6
CONTINUOUS
 62
     3
100
AcDbVertex
100
AcDb2dVertex
 10
636.5775476037265
 20
31.30534366524525
 30
0.0
  0
VERTEX
  5
550
330
488
100
AcDbEntity
  8
LAY-1
  6
CONTINUOUS
 62
     3
100
AcDbVertex
100
AcDb2dVertex
 10
636.4293895636656
 20
31.19421986377679
 30
0.0
  0
VERTEX
  5
551
330
488
100
AcDbEntity
  8
LAY-1
  6
CONTINUOUS
 62
     3
100
AcDbVertex
100
AcDb2dVertex
 10
636.278174592985
 20
31.08517437789489
 30
0.0
  0
VERTEX
  5
552
330
488
100
AcDbEntity
  8
LAY-1
  6
CONTINUOUS
 62
     3
100
AcDbVertex
100
AcDb2dVertex
 10
636.1239609879343
 20
30.97824924671041
 30
0.0
  0
VERTEX
  5
553
330
488
100
AcDbEntity
  8
LAY-1
  6
CONTINUOUS
 62
     3
100
AcDbVertex
100
AcDb2dVertex
 10
635.9668082007942
 20
30.87348569189671
 30
0.0
  0
VERTEX
  5
554
330
488
100
AcDbEntity
  8
LAY-1
  6
CONTINUOUS
 62
     3
100
AcDbVertex
100
AcDb2dVertex
 10
635.8067768169557
 20
30.77092410179832
 30
0.0
  0
VERTEX
  5
555
330
488
100
AcDbEntity
  8
LAY-1
  6
CONTINUOUS
 62
     3
100
AcDbVertex
100
AcDb2dVertex
 10
635.6439285315631
 20
30.67060401586078
 30
0.0
  0
VERTEX
  5
556
330
488
100
AcDbEntity
  8
LAY-1
  6
CONTINUOUS
 62
     3
100
AcDbVertex
100
AcDb2dVertex
 10
635.4783261257305
 20
30.57256410938688
 30
0.0
  0
VERTEX
  5
557
330
488
100
AcDbEntity
  8
LAY-1
  6
CONTINUOUS
 62
     3
100
AcDbVertex
100
AcDb2dVertex
 10
635.3100334423381
 20
30.47684217862669
 30
0.0
  0
VERTEX
  5
558
330
488
100
AcDbEntity
  8
LAY-1
  6
CONTINUOUS
 62
     3
100
AcDbVertex
100
AcDb2dVertex
 10
635.1391153614189
 20
30.38347512620671
 30
0.0
  0
VERTEX
  5
559
330
488
100
AcDbEntity
  8
LAY-1
  6
CONTINUOUS
 62
     3
100
AcDbVertex
100
AcDb2dVertex
 10
634.9656377751464
 20
30.29249894690312
 30
0.0
  0
VERTEX
  5
55A
330
488
100
AcDbEntity
  8
LAY-1
  6
CONTINUOUS
 62
     3
100
AcDbVertex
100
AcDb2dVertex
 10
634.7896675624324
 20
30.20394871376472
 30
0.0
  0
VERTEX
  5
55B
330
488
100
AcDbEntity
  8
LAY-1
  6
CONTINUOUS
 62
     3
100
AcDbVertex
100
AcDb2dVertex
 10
634.611272563144
 20
30.11785856459206
 30
0.0
  0
VERTEX
  5
55C
330
488
100
AcDbEntity
  8
LAY-1
  6
CONTINUOUS
 62
     3
100
AcDbVertex
100
AcDb2dVertex
 10
634.4305215519489
 20
30.03426168877635
 30
0.0
  0
VERTEX
  5
55D
330
488
100
AcDbEntity
  8
LAY-1
  6
CONTINUOUS
 62
     3
100
AcDbVertex
100
AcDb2dVertex
 10
634.2474842118031
 20
29.9531903145046
 30
0.0
  0
VERTEX
  5
55E
330
488
100
AcDbEntity
  8
LAY-1
  6
CONTINUOUS
 62
     3
100
AcDbVertex
100
AcDb2dVertex
 10
634.0622311070849
 20
29.87467569633505
 30
0.0
  0
VERTEX
  5
55F
330
488
100
AcDbEntity
  8
LAY-1
  6
CONTINUOUS
 62
     3
100
AcDbVertex
100
AcDb2dVertex
 10
633.8748336563933
 20
29.79874810314728
 30
0.0
  0
VERTEX
  5
560
330
488
100
AcDbEntity
  8
LAY-1
  6
CONTINUOUS
 62
     3
100
AcDbVertex
100
AcDb2dVertex
 10
633.6853641050125
 20
29.7254368064741
 30
0.0
  0
VERTEX
  5
561
330
488
100
AcDbEntity
  8
LAY-1
  6
CONTINUOUS
 62
     3
100
AcDbVertex
100
AcDb2dVertex
 10
633.4938954970612
 20
29.65477006921568
 30
0.0
  0
VERTEX
  5
562
330
488
100
AcDbEntity
  8
LAY-1
  6
CONTINUOUS
 62
     3
100
AcDbVertex
100
AcDb2dVertex
 10
633.3005016473326
 20
29.58677513474461
 30
0.0
  0
VERTEX
  5
563
330
488
100
AcDbEntity
  8
LAY-1
  6
CONTINUOUS
 62
     3
100
AcDbVertex
100
AcDb2dVertex
 10
633.1052571128373
 20
29.52147821640241
 30
0.0
  0
VERTEX
  5
564
330
488
100
AcDbEntity
  8
LAY-1
  6
CONTINUOUS
 62
     3
100
AcDbVertex
100
AcDb2dVertex
 10
632.90823716406
 20
29.45890448739404
 30
0.0
  0
VERTEX
  5
565
330
488
100
AcDbEntity
  8
LAY-1
  6
CONTINUOUS
 62
     3
100
AcDbVertex
100
AcDb2dVertex
 10
632.7095177559411
 20
29.3990780710832
 30
0.0
  0
VERTEX
  5
566
330
488
100
AcDbEntity
  8
LAY-1
  6
CONTINUOUS
 62
     3
100
AcDbVertex
100
AcDb2dVertex
 10
632.5091754985958
 20
29.34202203169232
 30
0.0
  0
VERTEX
  5
567
330
488
100
AcDbEntity
  8
LAY-1
  6
CONTINUOUS
 62
     3
100
AcDbVertex
100
AcDb2dVertex
 10
632.3072876277772
 20
29.28775836541049
 30
0.0
  0
VERTEX
  5
568
330
488
100
AcDbEntity
  8
LAY-1
  6
CONTINUOUS
 62
     3
100
AcDbVertex
100
AcDb2dVertex
 10
632.1039319751033
 20
29.23630799191434
 30
0.0
  0
VERTEX
  5
569
330
488
100
AcDbEntity
  8
LAY-1
  6
CONTINUOUS
 62
     3
100
AcDbVertex
100
AcDb2dVertex
 10
631.8991869380488
 20
29.18769074630185
 30
0.0
  0
VERTEX
  5
56A
330
488
100
AcDbEntity
  8
LAY-1
  6
CONTINUOUS
 62
     3
100
AcDbVertex
100
AcDb2dVertex
 10
631.6931314497235
 20
29.14192537144705
 30
0.0
  0
VERTEX
  5
56B
330
488
100
AcDbEntity
  8
LAY-1
  6
CONTINUOUS
 62
     3
100
AcDbVertex
100
AcDb2dVertex
 10
631.4858449484402
 20
29.09902951077284
 30
0.0
  0
VERTEX
  5
56C
330
488
100
AcDbEntity
  8
LAY-1
  6
CONTINUOUS
 62
     3
100
AcDbVertex
100
AcDb2dVertex
 10
631.277407347091
 20
29.05901970145029
 30
0.0
  0
VERTEX
  5
56D
330
488
100
AcDbEntity
  8
LAY-1
  6
CONTINUOUS
 62
     3
100
AcDbVertex
100
AcDb2dVertex
 10
631.0678990023391
 20
29.02191136802244
 30
0.0
  0
VERTEX
  5
56E
330
488
100
AcDbEntity
  8
LAY-1
  6
CONTINUOUS
 62
     3
100
AcDbVertex
100
AcDb2dVertex
 10
630.8574006836398
 20
28.98771881645816
 30
0.0
  0
VERTEX
  5
56F
330
488
100
AcDbEntity
  8
LAY-1
  6
CONTINUOUS
 62
     3
100
AcDbVertex
100
AcDb2dVertex
 10
630.6459935421015
 20
28.95645522863705
 30
0.0
  0
VERTEX
  5
570
330
488
100
AcDbEntity
  8
LAY-1
  6
CONTINUOUS
 62
     3
100
AcDbVertex
100
AcDb2dVertex
 10
630.433759079202
 20
28.92813265726718
 30
0.0
  0
VERTEX
  5
571
330
488
100
AcDbEntity
  8
LAY-1
  6
CONTINUOUS
 62
     3
100
AcDbVertex
100
AcDb2dVertex
 10
630.2207791153667
 20
28.90276202123911
 30
0.0
  0
VERTEX
  5
572
330
488
100
AcDbEntity
  8
LAY-1
  6
CONTINUOUS
 62
     3
100
AcDbVertex
100
AcDb2dVertex
 10
630.0071357584261
 20
28.88035310141591
 30
0.0
  0
VERTEX
  5
573
330
488
100
AcDbEntity
  8
LAY-1
  6
CONTINUOUS
 62
     3
100
AcDbVertex
100
AcDb2dVertex
 10
629.7929113719606
 20
28.86091453686284
 30
0.0
  0
VERTEX
  5
574
330
488
100
AcDbEntity
  8
LAY-1
  6
CONTINUOUS
 62
     3
100
AcDbVertex
100
AcDb2dVertex
 10
629.5781885435497
 20
28.8444538215165
 30
0.0
  0
VERTEX
  5
575
330
488
100
AcDbEntity
  8
LAY-1
  6
CONTINUOUS
 62
     3
100
AcDbVertex
100
AcDb2dVertex
 10
629.3630500529309
 20
28.83097730129591
 30
0.0
  0
VERTEX
  5
576
330
488
100
AcDbEntity
  8
LAY-1
  6
CONTINUOUS
 62
     3
100
AcDbVertex
100
AcDb2dVertex
 10
629.1475788400876
 20
28.82049017165635
 30
0.0
  0
VERTEX
  5
577
330
488
100
AcDbEntity
  8
LAY-1
  6
CONTINUOUS
 62
     3
100
AcDbVertex
100
AcDb2dVertex
 10
628.9318579732746
 20
28.81299647558577
 30
0.0
  0
VERTEX
  5
578
330
488
100
AcDbEntity
  8
LAY-1
  6
CONTINUOUS
 62
     3
100
AcDbVertex
100
AcDb2dVertex
 10
628.7159706169919
 20
28.80849910204679
 30
0.0
  0
VERTEX
  5
579
330
488
100
AcDbEntity
  8
LAY-1
  6
CONTINUOUS
 62
     3
100
AcDbVertex
100
AcDb2dVertex
 10
628.4999999999252
 20
28.80699978486231
 30
0.0
  0
VERTEX
  5
57A
330
488
100
AcDbEntity
  8
LAY-1
  6
CONTINUOUS
 62
     3
100
AcDbVertex
100
AcDb2dVertex
 10
628.2840293828585
 20
28.80849910204781
 30
0.0
  0
VERTEX
  5
57B
330
488
100
AcDbEntity
  8
LAY-1
  6
CONTINUOUS
 62
     3
100
AcDbVertex
100
AcDb2dVertex
 10
628.0681420265757
 20
28.81299647558799
 30
0.0
  0
VERTEX
  5
57C
330
488
100
AcDbEntity
  8
LAY-1
  6
CONTINUOUS
 62
     3
100
AcDbVertex
100
AcDb2dVertex
 10
627.8524211597628
 20
28.82049017165965
 30
0.0
  0
VERTEX
  5
57D
330
488
100
AcDbEntity
  8
LAY-1
  6
CONTINUOUS
 62
     3
100
AcDbVertex
100
AcDb2dVertex
 10
627.6369499469199
 20
28.83097730130034
 30
0.0
  0
VERTEX
  5
57E
330
488
100
AcDbEntity
  8
LAY-1
  6
CONTINUOUS
 62
     3
100
AcDbVertex
100
AcDb2dVertex
 10
627.4218114563013
 20
28.8444538215219
 30
0.0
  0
VERTEX
  5
57F
330
488
100
AcDbEntity
  8
LAY-1
  6
CONTINUOUS
 62
     3
100
AcDbVertex
100
AcDb2dVertex
 10
627.2070886278907
 20
28.86091453686921
 30
0.0
  0
VERTEX
  5
580
330
488
100
AcDbEntity
  8
LAY-1
  6
CONTINUOUS
 62
     3
100
AcDbVertex
100
AcDb2dVertex
 10
626.9928642414255
 20
28.88035310142342
 30
0.0
  0
VERTEX
  5
581
330
488
100
AcDbEntity
  8
LAY-1
  6
CONTINUOUS
 62
     3
100
AcDbVertex
100
AcDb2dVertex
 10
626.779220884485
 20
28.90276202124758
 30
0.0
  0
VERTEX
  5
582
330
488
100
AcDbEntity
  8
LAY-1
  6
CONTINUOUS
 62
     3
100
AcDbVertex
100
AcDb2dVertex
 10
626.5662409206499
 20
28.92813265727667
 30
0.0
  0
VERTEX
  5
583
330
488
100
AcDbEntity
  8
LAY-1
  6
CONTINUOUS
 62
     3
100
AcDbVertex
100
AcDb2dVertex
 10
626.3540064577509
 20
28.95645522864751
 30
0.0
  0
VERTEX
  5
584
330
488
100
AcDbEntity
  8
LAY-1
  6
CONTINUOUS
 62
     3
100
AcDbVertex
100
AcDb2dVertex
 10
626.1425993162131
 20
28.98771881646964
 30
0.0
  0
VERTEX
  5
585
330
488
100
AcDbEntity
  8
LAY-1
  6
CONTINUOUS
 62
     3
100
AcDbVertex
100
AcDb2dVertex
 10
625.9321009975141
 20
29.021911368035
 30
0.0
  0
VERTEX
  5
586
330
488
100
AcDbEntity
  8
LAY-1
  6
CONTINUOUS
 62
     3
100
AcDbVertex
100
AcDb2dVertex
 10
625.7225926527627
 20
29.05901970146382
 30
0.0
  0
VERTEX
  5
587
330
488
100
AcDbEntity
  8
LAY-1
  6
CONTINUOUS
 62
     3
100
AcDbVertex
100
AcDb2dVertex
 10
625.5141550514141
 20
29.0990295107874
 30
0.0
  0
VERTEX
  5
588
330
488
100
AcDbEntity
  8
LAY-1
  6
CONTINUOUS
 62
     3
100
AcDbVertex
100
AcDb2dVertex
 10
625.3068685501313
 20
29.14192537146246
 30
0.0
  0
VERTEX
  5
589
330
488
100
AcDbEntity
  8
LAY-1
  6
CONTINUOUS
 62
     3
100
AcDbVertex
100
AcDb2dVertex
 10
625.1008130618063
 20
29.18769074631833
 30
0.0
  0
VERTEX
  5
58A
330
488
100
AcDbEntity
  8
LAY-1
  6
CONTINUOUS
 62
     3
100
AcDbVertex
100
AcDb2dVertex
 10
624.8960680247527
 20
29.23630799193156
 30
0.0
  0
VERTEX
  5
58B
330
488
100
AcDbEntity
  8
LAY-1
  6
CONTINUOUS
 62
     3
100
AcDbVertex
100
AcDb2dVertex
 10
624.6927123720793
 20
29.28775836542868
 30
0.0
  0
VERTEX
  5
58C
330
488
100
AcDbEntity
  8
LAY-1
  6
CONTINUOUS
 62
     3
100
AcDbVertex
100
AcDb2dVertex
 10
624.4908245012616
 20
29.34202203171136
 30
0.0
  0
VERTEX
  5
58D
330
488
100
AcDbEntity
  8
LAY-1
  6
CONTINUOUS
 62
     3
100
AcDbVertex
100
AcDb2dVertex
 10
624.2904822439167
 20
29.3990780711031
 30
0.0
  0
VERTEX
  5
58E
330
488
100
AcDbEntity
  8
LAY-1
  6
CONTINUOUS
 62
     3
100
AcDbVertex
100
AcDb2dVertex
 10
624.0917628357987
 20
29.45890448741479
 30
0.0
  0
VERTEX
  5
58F
330
488
100
AcDbEntity
  8
LAY-1
  6
CONTINUOUS
 62
     3
100
AcDbVertex
100
AcDb2dVertex
 10
623.8947428870221
 20
29.52147821642395
 30
0.0
  0
VERTEX
  5
590
330
488
100
AcDbEntity
  8
LAY-1
  6
CONTINUOUS
 62
     3
100
AcDbVertex
100
AcDb2dVertex
 10
623.6994983525275
 20
29.58677513476695
 30
0.0
  0
VERTEX
  5
591
330
488
100
AcDbEntity
  8
LAY-1
  6
CONTINUOUS
 62
     3
100
AcDbVertex
100
AcDb2dVertex
 10
623.5061045028
 20
29.65477006923881
 30
0.0
  0
VERTEX
  5
592
330
488
100
AcDbEntity
  8
LAY-1
  6
CONTINUOUS
 62
     3
100
AcDbVertex
100
AcDb2dVertex
 10
623.3146358948494
 20
29.72543680649786
 30
0.0
  0
VERTEX
  5
593
330
488
100
AcDbEntity
  8
LAY-1
  6
CONTINUOUS
 62
     3
100
AcDbVertex
100
AcDb2dVertex
 10
623.1251663434695
 20
29.79874810317178
 30
0.0
  0
VERTEX
  5
594
330
488
100
AcDbEntity
  8
LAY-1
  6
CONTINUOUS
 62
     3
100
AcDbVertex
100
AcDb2dVertex
 10
622.9377688927788
 20
29.87467569636012
 30
0.0
  0
VERTEX
  5
595
330
488
100
AcDbEntity
  8
LAY-1
  6
CONTINUOUS
 62
     3
100
AcDbVertex
100
AcDb2dVertex
 10
622.7525157880617
 20
29.95319031453035
 30
0.0
  0
VERTEX
  5
596
330
488
100
AcDbEntity
  8
LAY-1
  6
CONTINUOUS
 62
     3
100
AcDbVertex
100
AcDb2dVertex
 10
622.5694784479166
 20
30.03426168880272
 30
0.0
  0
VERTEX
  5
597
330
488
100
AcDbEntity
  8
LAY-1
  6
CONTINUOUS
 62
     3
100
AcDbVertex
100
AcDb2dVertex
 10
622.3887274367225
 20
30.11785856461895
 30
0.0
  0
VERTEX
  5
598
330
488
100
AcDbEntity
  8
LAY-1
  6
CONTINUOUS
 62
     3
100
AcDbVertex
100
AcDb2dVertex
 10
622.2103324374349
 20
30.20394871379235
 30
0.0
  0
VERTEX
  5
599
330
488
100
AcDbEntity
  8
LAY-1
  6
CONTINUOUS
 62
     3
100
AcDbVertex
100
AcDb2dVertex
 10
622.0343622247221
 20
30.2924989469312
 30
0.0
  0
VERTEX
  5
59A
330
488
100
AcDbEntity
  8
LAY-1
  6
CONTINUOUS
 62
     3
100
AcDbVertex
100
AcDb2dVertex
 10
621.8608846384504
 20
30.3834751262353
 30
0.0
  0
VERTEX
  5
59B
330
488
100
AcDbEntity
  8
LAY-1
  6
CONTINUOUS
 62
     3
100
AcDbVertex
100
AcDb2dVertex
 10
621.6899665575322
 20
30.47684217865568
 30
0.0
  0
VERTEX
  5
59C
330
488
100
AcDbEntity
  8
LAY-1
  6
CONTINUOUS
 62
     3
100
AcDbVertex
100
AcDb2dVertex
 10
621.5216738741408
 20
30.57256410941627
 30
0.0
  0
VERTEX
  5
59D
330
488
100
AcDbEntity
  8
LAY-1
  6
CONTINUOUS
 62
     3
100
AcDbVertex
100
AcDb2dVertex
 10
621.3560714683093
 20
30.67060401589074
 30
0.0
  0
VERTEX
  5
59E
330
488
100
AcDbEntity
  8
LAY-1
  6
CONTINUOUS
 62
     3
100
AcDbVertex
100
AcDb2dVertex
 10
621.1932231829178
 20
30.77092410182856
 30
0.0
  0
VERTEX
  5
59F
330
488
100
AcDbEntity
  8
LAY-1
  6
CONTINUOUS
 62
     3
100
AcDbVertex
100
AcDb2dVertex
 10
621.03319179908
 20
30.87348569192729
 30
0.0
  0
VERTEX
  5
5A0
330
488
100
AcDbEntity
  8
LAY-1
  6
CONTINUOUS
 62
     3
100
AcDbVertex
100
AcDb2dVertex
 10
620.876039011941
 20
30.97824924674122
 30
0.0
  0
VERTEX
  5
5A1
330
488
100
AcDbEntity
  8
LAY-1
  6
CONTINUOUS
 62
     3
100
AcDbVertex
100
AcDb2dVertex
 10
620.7218254068916
 20
31.08517437792599
 30
0.0
  0
VERTEX
  5
5A2
330
488
100
AcDbEntity
  8
LAY-1
  6
CONTINUOUS
 62
     3
100
AcDbVertex
100
AcDb2dVertex
 10
620.570610436212
 20
31.19421986380805
 30
0.0
  0
VERTEX
  5
5A3
330
488
100
AcDbEntity
  8
LAY-1
  6
CONTINUOUS
 62
     3
100
AcDbVertex
100
AcDb2dVertex
 10
620.422452396152
 20
31.30534366527686
 30
0.0
  0
VERTEX
  5
5A4
330
488
100
AcDbEntity
  8
LAY-1
  6
CONTINUOUS
 62
     3
100
AcDbVertex
100
AcDb2dVertex
 10
620.2774084044564
 20
31.41850294199147
 30
0.0
  0
VERTEX
  5
5A5
330
488
100
AcDbEntity
  8
LAY-1
  6
CONTINUOUS
 62
     3
100
AcDbVertex
100
AcDb2dVertex
 10
620.1355343783451
 20
31.53365406889676
 30
0.0
  0
VERTEX
  5
5A6
330
488
100
AcDbEntity
  8
LAY-1
  6
CONTINUOUS
 62
     3
100
AcDbVertex
100
AcDb2dVertex
 10
619.9968850129558
 20
31.65075265304122
 30
0.0
  0
VERTEX
  5
5A7
330
488
100
AcDbEntity
  8
LAY-1
  6
CONTINUOUS
 62
     3
100
AcDbVertex
100
AcDb2dVertex
 10
619.8615137602583
 20
31.7697535506916
 30
0.0
  0
VERTEX
  5
5A8
330
488
100
AcDbEntity
  8
LAY-1
  6
CONTINUOUS
 62
     3
100
AcDbVertex
100
AcDb2dVertex
 10
619.7294728084471
 20
31.89061088473667
 30
0.0
  0
VERTEX
  5
5A9
330
488
100
AcDbEntity
  8
LAY-1
  6
CONTINUOUS
 62
     3
100
AcDbVertex
100
AcDb2dVertex
 10
619.6008130618229
 20
32.0132780623733
 30
0.0
  0
VERTEX
  5
5AA
330
488
100
AcDbEntity
  8
LAY-1
  6
CONTINUOUS
 62
     3
100
AcDbVertex
100
AcDb2dVertex
 10
619.4755841211671
 20
32.13770779306972
 30
0.0
  0
VERTEX
  5
5AB
330
488
100
AcDbEntity
  8
LAY-1
  6
CONTINUOUS
 62
     3
100
AcDbVertex
100
AcDb2dVertex
 10
619.3538342646201
 20
32.26385210679594
 30
0.0
  0
VERTEX
  5
5AC
330
488
100
AcDbEntity
  8
LAY-1
  6
CONTINUOUS
 62
     3
100
AcDbVertex
100
AcDb2dVertex
 10
619.2356104290694
 20
32.39166237251779
 30
0.0
  0
VERTEX
  5
5AD
330
488
100
AcDbEntity
  8
LAY-1
  6
CONTINUOUS
 62
     3
100
AcDbVertex
100
AcDb2dVertex
 10
619.1209581920538
 20
32.52108931694485
 30
0.0
  0
VERTEX
  5
5AE
330
488
100
AcDbEntity
  8
LAY-1
  6
CONTINUOUS
 62
     3
100
AcDbVertex
100
AcDb2dVertex
 10
619.0099217541934
 20
32.65208304352628
 30
0.0
  0
VERTEX
  5
5AF
330
488
100
AcDbEntity
  8
LAY-1
  6
CONTINUOUS
 62
     3
100
AcDbVertex
100
AcDb2dVertex
 10
618.9025439221488
 20
32.78459305168698
 30
0.0
  0
VERTEX
  5
5B0
330
488
100
AcDbEntity
  8
LAY-1
  6
CONTINUOUS
 62
     3
100
AcDbVertex
100
AcDb2dVertex
 10
618.798866092118
 20
32.91856825629625
 30
0.0
  0
VERTEX
  5
5B1
330
488
100
AcDbEntity
  8
LAY-1
  6
CONTINUOUS
 62
     3
100
AcDbVertex
100
AcDb2dVertex
 10
618.6989282338782
 20
33.05395700736252
 30
0.0
  0
VERTEX
  5
5B2
330
488
100
AcDbEntity
  8
LAY-1
  6
CONTINUOUS
 62
     3
100
AcDbVertex
100
AcDb2dVertex
 10
618.6027688753761
 20
33.19070710994483
 30
0.0
  0
VERTEX
  5
5B3
330
488
100
AcDbEntity
  8
LAY-1
  6
CONTINUOUS
 62
     3
100
AcDbVertex
100
AcDb2dVertex
 10
618.5104250878749
 20
33.32876584427569
 30
0.0
  0
VERTEX
  5
5B4
330
488
100
AcDbEntity
  8
LAY-1
  6
CONTINUOUS
 62
     3
100
AcDbVertex
100
AcDb2dVertex
 10
618.4219324716626
 20
33.46807998608474
 30
0.0
  0
VERTEX
  5
5B5
330
488
100
AcDbEntity
  8
LAY-1
  6
CONTINUOUS
 62
     3
100
AcDbVertex
100
AcDb2dVertex
 10
618.337325142327
 20
33.60859582711847
 30
0.0
  0
VERTEX
  5
5B6
330
488
100
AcDbEntity
  8
LAY-1
  6
CONTINUOUS
 62
     3
100
AcDbVertex
100
AcDb2dVertex
 10
618.2566357176046
 20
33.75025919584524
 30
0.0
  0
VERTEX
  5
5B7
330
488
100
AcDbEntity
  8
LAY-1
  6
CONTINUOUS
 62
     3
100
AcDbVertex
100
AcDb2dVertex
 10
618.1798953048043
 20
33.89301547833983
 30
0.0
  0
VERTEX
  5
5B8
330
488
100
AcDbEntity
  8
LAY-1
  6
CONTINUOUS
 62
     3
100
AcDbVertex
100
AcDb2dVertex
 10
618.1071334888162
 20
34.0368096393378
 30
0.0
  0
VERTEX
  5
5B9
330
488
100
AcDbEntity
  8
LAY-1
  6
CONTINUOUS
 62
     3
100
AcDbVertex
100
AcDb2dVertex
 10
618.0383783207052
 20
34.18158624345275
 30
0.0
  0
VERTEX
  5
5BA
330
488
100
AcDbEntity
  8
LAY-1
  6
CONTINUOUS
 62
     3
100
AcDbVertex
100
AcDb2dVertex
 10
617.9736563068977
 20
34.32728947654802
 30
0.0
  0
VERTEX
  5
5BB
330
488
100
AcDbEntity
  8
LAY-1
  6
CONTINUOUS
 62
     3
100
AcDbVertex
100
AcDb2dVertex
 10
617.912992398962
 20
34.47386316725348
 30
0.0
  0
VERTEX
  5
5BC
330
488
100
AcDbEntity
  8
LAY-1
  6
CONTINUOUS
 62
     3
100
AcDbVertex
100
AcDb2dVertex
 10
617.8564099839894
 20
34.62125080862133
 30
0.0
  0
VERTEX
  5
5BD
330
488
100
AcDbEntity
  8
LAY-1
  6
CONTINUOUS
 62
     3
100
AcDbVertex
100
AcDb2dVertex
 10
617.8039308755779
 20
34.76939557991013
 30
0.0
  0
VERTEX
  5
5BE
330
488
100
AcDbEntity
  8
LAY-1
  6
CONTINUOUS
 62
     3
100
AcDbVertex
100
AcDb2dVertex
 10
617.7555753054228
 20
34.91824036849052
 30
0.0
  0
VERTEX
  5
5BF
330
488
100
AcDbEntity
  8
LAY-1
  6
CONTINUOUS
 62
     3
100
AcDbVertex
100
AcDb2dVertex
 10
617.7113619155169
 20
35.06772779186306
 30
0.0
  0
VERTEX
  5
5C0
330
488
100
AcDbEntity
  8
LAY-1
  6
CONTINUOUS
 62
     3
100
AcDbVertex
100
AcDb2dVertex
 10
617.6713077509635
 20
35.21780021978039
 30
0.0
  0
VERTEX
  5
5C1
330
488
100
AcDbEntity
  8
LAY-1
  6
CONTINUOUS
 62
     3
100
AcDbVertex
100
AcDb2dVertex
 10
617.6354282534058
 20
35.36839979646484
 30
0.0
  0
VERTEX
  5
5C2
330
488
100
AcDbEntity
  8
LAY-1
  6
CONTINUOUS
 62
     3
100
AcDbVertex
100
AcDb2dVertex
 10
617.6037372550728
 20
35.51946846291295
 30
0.0
  0
VERTEX
  5
5C3
330
488
100
AcDbEntity
  8
LAY-1
  6
CONTINUOUS
 62
     3
100
AcDbVertex
100
AcDb2dVertex
 10
617.5762469734481
 20
35.67094797927771
 30
0.0
  0
VERTEX
  5
5C4
330
488
100
AcDbEntity
  8
LAY-1
  6
CONTINUOUS
 62
     3
100
AcDbVertex
100
AcDb2dVertex
 10
617.552968006558
 20
35.82277994732245
 30
0.0
  0
VERTEX
  5
5C5
330
488
100
AcDbEntity
  8
LAY-1
  6
CONTINUOUS
 62
     3
100
AcDbVertex
100
AcDb2dVertex
 10
617.5339093288876
 20
35.97490583293287
 30
0.0
  0
VERTEX
  5
5C6
330
488
100
AcDbEntity
  8
LAY-1
  6
CONTINUOUS
 62
     3
100
AcDbVertex
100
AcDb2dVertex
 10
617.5190782879199
 20
36.12726698868445
 30
0.0
  0
VERTEX
  5
5C7
330
488
100
AcDbEntity
  8
LAY-1
  6
CONTINUOUS
 62
     3
100
AcDbVertex
100
AcDb2dVertex
 10
617.5084806013037
 20
36.27980467645116
 30
0.0
  0
VERTEX
  5
5C8
330
488
100
AcDbEntity
  8
LAY-1
  6
CONTINUOUS
 62
     3
100
AcDbVertex
100
AcDb2dVertex
 10
617.5021203546488
 20
36.43246009005085
 30
0.0
  0
VERTEX
  5
5C9
330
488
100
AcDbEntity
  8
LAY-1
  6
CONTINUOUS
 62
     3
100
AcDbVertex
100
AcDb2dVertex
 10
617.4999999999513
 20
36.5851743779153
 30
0.0
  0
SEQEND
  5
5CA
330
488
100
AcDbEntity
  8
LAY-1
  6
CONTINUOUS
 62
     3
  0
LINE
  5
5CB
330
1F
100
AcDbEntity
  8
LAY-1
  6
CONTINUOUS
 62
     3
100
AcDbLine
 10
557.1491470389699
 20
50.72731000165101
 30
0.0
 11
569.8508529611299
 21
50.72731000165101
 31
0.0
  0
LINE
  5
5CC
330
1F
100
AcDbEntity
  8
LAY-1
  6
CONTINUOUS
 62
     3
100
AcDbLine
 10
557.149147038974
 20
44.36334897096776
 30
0.0
 11
569.8508529611685
 21
44.36334897095696
 31
0.0
  0
LINE
  5
5CD
330
1F
100
AcDbEntity
  8
LAY-1
  6
CONTINUOUS
 62
     3
100
AcDbLine
 10
569.8508529611299
 20
50.72731000165101
 30
0.0
 11
576.20170592223
 21
42.94913540859102
 31
0.0
  0
LINE
  5
5CE
330
1F
100
AcDbEntity
  8
LAY-1
  6
CONTINUOUS
 62
     3
100
AcDbLine
 10
569.8508529611665
 20
44.36334897095929
 30
0.0
 11
576.2017059222144
 21
36.58517437792324
 31
0.0
  0
LINE
  5
5CF
330
1F
100
AcDbEntity
  8
LAY-1
  6
CONTINUOUS
 62
     3
100
AcDbLine
 10
569.8508529611435
 20
28.80699978487883
 30
0.0
 11
576.2017059222144
 21
36.58517437792324
 31
0.0
  0
LINE
  5
5D0
330
1F
100
AcDbEntity
  8
LAY-1
  6
CONTINUOUS
 62
     3
100
AcDbLine
 10
569.8508529611457
 20
28.80699978487974
 30
0.0
 11
557.1491470389773
 21
28.80699978484841
 31
0.0
  0
LINE
  5
5D1
330
1F
100
AcDbEntity
  8
LAY-1
  6
CONTINUOUS
 62
     3
100
AcDbLine
 10
550.7982940778653
 20
36.58517437789055
 30
0.0
 11
557.1491470389773
 21
28.80699978484841
 31
0.0
  0
LINE
  5
5D2
330
1F
100
AcDbEntity
  8
LAY-1
  6
CONTINUOUS
 62
     3
100
AcDbLine
 10
557.1491470389778
 20
44.3633489709693
 30
0.0
 11
550.7982940778672
 21
36.58517437788811
 31
0.0
  0
LINE
  5
5D3
330
1F
100
AcDbEntity
  8
LAY-1
  6
CONTINUOUS
 62
     3
100
AcDbLine
 10
550.7982940778699
 20
42.94913540859102
 30
0.0
 11
550.7982940778699
 21
36.58517437789101
 31
0.0
  0
LINE
  5
5D4
330
1F
100
AcDbEntity
  8
LAY-1
  6
CONTINUOUS
 62
     3
100
AcDbLine
 10
557.1491470389699
 20
50.72731000165101
 30
0.0
 11
550.7982940778699
 21
42.94913540859102
 31
0.0
  0
LINE
  5
5D5
330
1F
100
AcDbEntity
  8
LAY-1
  6
CONTINUOUS
 62
     3
100
AcDbLine
 10
557.1491470389699
 20
50.72731000165101
 30
0.0
 11
557.1491470389699
 21
44.363348970971
 31
0.0
  0
LINE
  5
5D6
330
1F
100
AcDbEntity
  8
LAY-1
  6
CONTINUOUS
 62
     3
100
AcDbLine
 10
569.8508529611299
 20
50.72731000165101
 30
0.0
 11
569.8508529611299
 21
44.363348970971
 31
0.0
  0
LINE
  5
5D7
330
1F
100
AcDbEntity
  8
LAY-1
  6
CONTINUOUS
 62
     3
100
AcDbLine
 10
576.20170592223
 20
42.94913540859102
 30
0.0
 11
576.20170592223
 21
36.58517437789101
 31
0.0
  0
POLYLINE
  5
5D8
330
1F
100
AcDbEntity
  8
LAY-1
  6
CONTINUOUS
 62
     3
100
AcDb2dPolyline
 66
     1
 10
0.0
 20
0.0
 30
0.0
 70
   128
  0
VERTEX
  5
5D9
330
5D8
100
AcDbEntity
  8
LAY-1
  6
CONTINUOUS
 62
     3
100
AcDbVertex
100
AcDb2dVertex
 10
574.5000000000488
 20
36.58517437791528
 30
0.0
  0
VERTEX
  5
5DA
330
5D8
100
AcDbEntity
  8
LAY-1
  6
CONTINUOUS
 62
     3
100
AcDbVertex
100
AcDb2dVertex
 10
574.4978796453518
 20
36.73788866578002
 30
0.0
  0
VERTEX
  5
5DB
330
5D8
100
AcDbEntity
  8
LAY-1
  6
CONTINUOUS
 62
     3
100
AcDbVertex
100
AcDb2dVertex
 10
574.4915193986973
 20
36.89054407937971
 30
0.0
  0
VERTEX
  5
5DC
330
5D8
100
AcDbEntity
  8
LAY-1
  6
CONTINUOUS
 62
     3
100
AcDbVertex
100
AcDb2dVertex
 10
574.4809217120813
 20
37.04308176714642
 30
0.0
  0
VERTEX
  5
5DD
330
5D8
100
AcDbEntity
  8
LAY-1
  6
CONTINUOUS
 62
     3
100
AcDbVertex
100
AcDb2dVertex
 10
574.4660906711141
 20
37.195442922898
 30
0.0
  0
VERTEX
  5
5DE
330
5D8
100
AcDbEntity
  8
LAY-1
  6
CONTINUOUS
 62
     3
100
AcDbVertex
100
AcDb2dVertex
 10
574.4470319934442
 20
37.34756880850858
 30
0.0
  0
VERTEX
  5
5DF
330
5D8
100
AcDbEntity
  8
LAY-1
  6
CONTINUOUS
 62
     3
100
AcDbVertex
100
AcDb2dVertex
 10
574.4237530265547
 20
37.49940077655316
 30
0.0
  0
VERTEX
  5
5E0
330
5D8
100
AcDbEntity
  8
LAY-1
  6
CONTINUOUS
 62
     3
100
AcDbVertex
100
AcDb2dVertex
 10
574.39626274493
 20
37.65088029291815
 30
0.0
  0
VERTEX
  5
5E1
330
5D8
100
AcDbEntity
  8
LAY-1
  6
CONTINUOUS
 62
     3
100
AcDbVertex
100
AcDb2dVertex
 10
574.3645717465977
 20
37.80194895936609
 30
0.0
  0
VERTEX
  5
5E2
330
5D8
100
AcDbEntity
  8
LAY-1
  6
CONTINUOUS
 62
     3
100
AcDbVertex
100
AcDb2dVertex
 10
574.3286922490402
 20
37.95254853605059
 30
0.0
  0
VERTEX
  5
5E3
330
5D8
100
AcDbEntity
  8
LAY-1
  6
CONTINUOUS
 62
     3
100
AcDbVertex
100
AcDb2dVertex
 10
574.2886380844874
 20
38.10262096396804
 30
0.0
  0
VERTEX
  5
5E4
330
5D8
100
AcDbEntity
  8
LAY-1
  6
CONTINUOUS
 62
     3
100
AcDbVertex
100
AcDb2dVertex
 10
574.2444246945819
 20
38.25210838734068
 30
0.0
  0
VERTEX
  5
5E5
330
5D8
100
AcDbEntity
  8
LAY-1
  6
CONTINUOUS
 62
     3
100
AcDbVertex
100
AcDb2dVertex
 10
574.1960691244269
 20
38.40095317592096
 30
0.0
  0
VERTEX
  5
5E6
330
5D8
100
AcDbEntity
  8
LAY-1
  6
CONTINUOUS
 62
     3
100
AcDbVertex
100
AcDb2dVertex
 10
574.143590016016
 20
38.54909794720993
 30
0.0
  0
VERTEX
  5
5E7
330
5D8
100
AcDbEntity
  8
LAY-1
  6
CONTINUOUS
 62
     3
100
AcDbVertex
100
AcDb2dVertex
 10
574.0870076010436
 20
38.69648558857779
 30
0.0
  0
VERTEX
  5
5E8
330
5D8
100
AcDbEntity
  8
LAY-1
  6
CONTINUOUS
 62
     3
100
AcDbVertex
100
AcDb2dVertex
 10
574.0263436931083
 20
38.84305927928335
 30
0.0
  0
VERTEX
  5
5E9
330
5D8
100
AcDbEntity
  8
LAY-1
  6
CONTINUOUS
 62
     3
100
AcDbVertex
100
AcDb2dVertex
 10
573.9616216793012
 20
38.98876251237868
 30
0.0
  0
VERTEX
  5
5EA
330
5D8
100
AcDbEntity
  8
LAY-1
  6
CONTINUOUS
 62
     3
100
AcDbVertex
100
AcDb2dVertex
 10
573.8928665111906
 20
39.13353911649364
 30
0.0
  0
VERTEX
  5
5EB
330
5D8
100
AcDbEntity
  8
LAY-1
  6
CONTINUOUS
 62
     3
100
AcDbVertex
100
AcDb2dVertex
 10
573.8201046952026
 20
39.27733327749166
 30
0.0
  0
VERTEX
  5
5EC
330
5D8
100
AcDbEntity
  8
LAY-1
  6
CONTINUOUS
 62
     3
100
AcDbVertex
100
AcDb2dVertex
 10
573.7433642824027
 20
39.42008955998631
 30
0.0
  0
VERTEX
  5
5ED
330
5D8
100
AcDbEntity
  8
LAY-1
  6
CONTINUOUS
 62
     3
100
AcDbVertex
100
AcDb2dVertex
 10
573.6626748576805
 20
39.56175292871313
 30
0.0
  0
VERTEX
  5
5EE
330
5D8
100
AcDbEntity
  8
LAY-1
  6
CONTINUOUS
 62
     3
100
AcDbVertex
100
AcDb2dVertex
 10
573.5780675283453
 20
39.70226876974698
 30
0.0
  0
VERTEX
  5
5EF
330
5D8
100
AcDbEntity
  8
LAY-1
  6
CONTINUOUS
 62
     3
100
AcDbVertex
100
AcDb2dVertex
 10
573.4895749121332
 20
39.84158291155603
 30
0.0
  0
VERTEX
  5
5F0
330
5D8
100
AcDbEntity
  8
LAY-1
  6
CONTINUOUS
 62
     3
100
AcDbVertex
100
AcDb2dVertex
 10
573.3972311246322
 20
39.979641645887
 30
0.0
  0
VERTEX
  5
5F1
330
5D8
100
AcDbEntity
  8
LAY-1
  6
CONTINUOUS
 62
     3
100
AcDbVertex
100
AcDb2dVertex
 10
573.3010717661305
 20
40.11639174846948
 30
0.0
  0
VERTEX
  5
5F2
330
5D8
100
AcDbEntity
  8
LAY-1
  6
CONTINUOUS
 62
     3
100
AcDbVertex
100
AcDb2dVertex
 10
573.201133907891
 20
40.25178049953581
 30
0.0
  0
VERTEX
  5
5F3
330
5D8
100
AcDbEntity
  8
LAY-1
  6
CONTINUOUS
 62
     3
100
AcDbVertex
100
AcDb2dVertex
 10
573.0974560778602
 20
40.38575570414514
 30
0.0
  0
VERTEX
  5
5F4
330
5D8
100
AcDbEntity
  8
LAY-1
  6
CONTINUOUS
 62
     3
100
AcDbVertex
100
AcDb2dVertex
 10
572.9900782458158
 20
40.51826571230589
 30
0.0
  0
VERTEX
  5
5F5
330
5D8
100
AcDbEntity
  8
LAY-1
  6
CONTINUOUS
 62
     3
100
AcDbVertex
100
AcDb2dVertex
 10
572.8790418079556
 20
40.64925943888733
 30
0.0
  0
VERTEX
  5
5F6
330
5D8
100
AcDbEntity
  8
LAY-1
  6
CONTINUOUS
 62
     3
100
AcDbVertex
100
AcDb2dVertex
 10
572.7643895709404
 20
40.77868638331455
 30
0.0
  0
VERTEX
  5
5F7
330
5D8
100
AcDbEntity
  8
LAY-1
  6
CONTINUOUS
 62
     3
100
AcDbVertex
100
AcDb2dVertex
 10
572.6461657353897
 20
40.90649664903657
 30
0.0
  0
VERTEX
  5
5F8
330
5D8
100
AcDbEntity
  8
LAY-1
  6
CONTINUOUS
 62
     3
100
AcDbVertex
100
AcDb2dVertex
 10
572.524415878843
 20
41.0326409627628
 30
0.0
  0
VERTEX
  5
5F9
330
5D8
100
AcDbEntity
  8
LAY-1
  6
CONTINUOUS
 62
     3
100
AcDbVertex
100
AcDb2dVertex
 10
572.3991869381873
 20
41.15707069345933
 30
0.0
  0
VERTEX
  5
5FA
330
5D8
100
AcDbEntity
  8
LAY-1
  6
CONTINUOUS
 62
     3
100
AcDbVertex
100
AcDb2dVertex
 10
572.2705271915631
 20
41.27973787109602
 30
0.0
  0
VERTEX
  5
5FB
330
5D8
100
AcDbEntity
  8
LAY-1
  6
CONTINUOUS
 62
     3
100
AcDbVertex
100
AcDb2dVertex
 10
572.1384862397521
 20
41.40059520514114
 30
0.0
  0
VERTEX
  5
5FC
330
5D8
100
AcDbEntity
  8
LAY-1
  6
CONTINUOUS
 62
     3
100
AcDbVertex
100
AcDb2dVertex
 10
572.0031149870546
 20
41.51959610279158
 30
0.0
  0
VERTEX
  5
5FD
330
5D8
100
AcDbEntity
  8
LAY-1
  6
CONTINUOUS
 62
     3
100
AcDbVertex
100
AcDb2dVertex
 10
571.8644656216652
 20
41.63669468693604
 30
0.0
  0
VERTEX
  5
5FE
330
5D8
100
AcDbEntity
  8
LAY-1
  6
CONTINUOUS
 62
     3
100
AcDbVertex
100
AcDb2dVertex
 10
571.722591595554
 20
41.75184581384138
 30
0.0
  0
VERTEX
  5
5FF
330
5D8
100
AcDbEntity
  8
LAY-1
  6
CONTINUOUS
 62
     3
100
AcDbVertex
100
AcDb2dVertex
 10
571.5775476038588
 20
41.86500509055617
 30
0.0
  0
VERTEX
  5
600
330
5D8
100
AcDbEntity
  8
LAY-1
  6
CONTINUOUS
 62
     3
100
AcDbVertex
100
AcDb2dVertex
 10
571.4293895637987
 20
41.97612889202492
 30
0.0
  0
VERTEX
  5
601
330
5D8
100
AcDbEntity
  8
LAY-1
  6
CONTINUOUS
 62
     3
100
AcDbVertex
100
AcDb2dVertex
 10
571.278174593119
 20
42.08517437790698
 30
0.0
  0
VERTEX
  5
602
330
5D8
100
AcDbEntity
  8
LAY-1
  6
CONTINUOUS
 62
     3
100
AcDbVertex
100
AcDb2dVertex
 10
571.1239609880696
 20
42.19209950909192
 30
0.0
  0
VERTEX
  5
603
330
5D8
100
AcDbEntity
  8
LAY-1
  6
CONTINUOUS
 62
     3
100
AcDbVertex
100
AcDb2dVertex
 10
570.9668082009306
 20
42.29686306390602
 30
0.0
  0
VERTEX
  5
604
330
5D8
100
AcDbEntity
  8
LAY-1
  6
CONTINUOUS
 62
     3
100
AcDbVertex
100
AcDb2dVertex
 10
570.8067768170926
 20
42.39942465400452
 30
0.0
  0
VERTEX
  5
605
330
5D8
100
AcDbEntity
  8
LAY-1
  6
CONTINUOUS
 62
     3
100
AcDbVertex
100
AcDb2dVertex
 10
570.643928531701
 20
42.49974473994246
 30
0.0
  0
VERTEX
  5
606
330
5D8
100
AcDbEntity
  8
LAY-1
  6
CONTINUOUS
 62
     3
100
AcDbVertex
100
AcDb2dVertex
 10
570.4783261258696
 20
42.59778464641693
 30
0.0
  0
VERTEX
  5
607
330
5D8
100
AcDbEntity
  8
LAY-1
  6
CONTINUOUS
 62
     3
100
AcDbVertex
100
AcDb2dVertex
 10
570.3100334424781
 20
42.69350657717757
 30
0.0
  0
VERTEX
  5
608
330
5D8
100
AcDbEntity
  8
LAY-1
  6
CONTINUOUS
 62
     3
100
AcDbVertex
100
AcDb2dVertex
 10
570.1391153615598
 20
42.78687362959795
 30
0.0
  0
VERTEX
  5
609
330
5D8
100
AcDbEntity
  8
LAY-1
  6
CONTINUOUS
 62
     3
100
AcDbVertex
100
AcDb2dVertex
 10
569.9656377752881
 20
42.87784980890211
 30
0.0
  0
VERTEX
  5
60A
330
5D8
100
AcDbEntity
  8
LAY-1
  6
CONTINUOUS
 62
     3
100
AcDbVertex
100
AcDb2dVertex
 10
569.789667562575
 20
42.96640004204107
 30
0.0
  0
VERTEX
  5
60B
330
5D8
100
AcDbEntity
  8
LAY-1
  6
CONTINUOUS
 62
     3
100
AcDbVertex
100
AcDb2dVertex
 10
569.6112725632872
 20
43.0524901912143
 30
0.0
  0
VERTEX
  5
60C
330
5D8
100
AcDbEntity
  8
LAY-1
  6
CONTINUOUS
 62
     3
100
AcDbVertex
100
AcDb2dVertex
 10
569.4305215520931
 20
43.13608706703053
 30
0.0
  0
VERTEX
  5
60D
330
5D8
100
AcDbEntity
  8
LAY-1
  6
CONTINUOUS
 62
     3
100
AcDbVertex
100
AcDb2dVertex
 10
569.2474842119478
 20
43.21715844130273
 30
0.0
  0
VERTEX
  5
60E
330
5D8
100
AcDbEntity
  8
LAY-1
  6
CONTINUOUS
 62
     3
100
AcDbVertex
100
AcDb2dVertex
 10
569.0622311072306
 20
43.29567305947296
 30
0.0
  0
VERTEX
  5
60F
330
5D8
100
AcDbEntity
  8
LAY-1
  6
CONTINUOUS
 62
     3
100
AcDbVertex
100
AcDb2dVertex
 10
568.8748336565395
 20
43.3716006526613
 30
0.0
  0
VERTEX
  5
610
330
5D8
100
AcDbEntity
  8
LAY-1
  6
CONTINUOUS
 62
     3
100
AcDbVertex
100
AcDb2dVertex
 10
568.6853641051595
 20
43.44491194933522
 30
0.0
  0
VERTEX
  5
611
330
5D8
100
AcDbEntity
  8
LAY-1
  6
CONTINUOUS
 62
     3
100
AcDbVertex
100
AcDb2dVertex
 10
568.4938954972087
 20
43.51557868659427
 30
0.0
  0
VERTEX
  5
612
330
5D8
100
AcDbEntity
  8
LAY-1
  6
CONTINUOUS
 62
     3
100
AcDbVertex
100
AcDb2dVertex
 10
568.3005016474807
 20
43.58357362106597
 30
0.0
  0
VERTEX
  5
613
330
5D8
100
AcDbEntity
  8
LAY-1
  6
CONTINUOUS
 62
     3
100
AcDbVertex
100
AcDb2dVertex
 10
568.1052571129858
 20
43.6488705394089
 30
0.0
  0
VERTEX
  5
614
330
5D8
100
AcDbEntity
  8
LAY-1
  6
CONTINUOUS
 62
     3
100
AcDbVertex
100
AcDb2dVertex
 10
567.9082371642091
 20
43.71144426841795
 30
0.0
  0
VERTEX
  5
615
330
5D8
100
AcDbEntity
  8
LAY-1
  6
CONTINUOUS
 62
     3
100
AcDbVertex
100
AcDb2dVertex
 10
567.7095177560906
 20
43.77127068472942
 30
0.0
  0
VERTEX
  5
616
330
5D8
100
AcDbEntity
  8
LAY-1
  6
CONTINUOUS
 62
     3
100
AcDbVertex
100
AcDb2dVertex
 10
567.5091754987454
 20
43.8283267241211
 30
0.0
  0
VERTEX
  5
617
330
5D8
100
AcDbEntity
  8
LAY-1
  6
CONTINUOUS
 62
     3
100
AcDbVertex
100
AcDb2dVertex
 10
567.3072876279274
 20
43.88259039040355
 30
0.0
  0
VERTEX
  5
618
330
5D8
100
AcDbEntity
  8
LAY-1
  6
CONTINUOUS
 62
     3
100
AcDbVertex
100
AcDb2dVertex
 10
567.1039319752539
 20
43.93404076390061
 30
0.0
  0
VERTEX
  5
619
330
5D8
100
AcDbEntity
  8
LAY-1
  6
CONTINUOUS
 62
     3
100
AcDbVertex
100
AcDb2dVertex
 10
566.8991869381997
 20
43.98265800951367
 30
0.0
  0
VERTEX
  5
61A
330
5D8
100
AcDbEntity
  8
LAY-1
  6
CONTINUOUS
 62
     3
100
AcDbVertex
100
AcDb2dVertex
 10
566.6931314498745
 20
44.02842338436932
 30
0.0
  0
VERTEX
  5
61B
330
5D8
100
AcDbEntity
  8
LAY-1
  6
CONTINUOUS
 62
     3
100
AcDbVertex
100
AcDb2dVertex
 10
566.4858449485914
 20
44.07131924504421
 30
0.0
  0
VERTEX
  5
61C
330
5D8
100
AcDbEntity
  8
LAY-1
  6
CONTINUOUS
 62
     3
100
AcDbVertex
100
AcDb2dVertex
 10
566.2774073472422
 20
44.11132905436762
 30
0.0
  0
VERTEX
  5
61D
330
5D8
100
AcDbEntity
  8
LAY-1
  6
CONTINUOUS
 62
     3
100
AcDbVertex
100
AcDb2dVertex
 10
566.0678990024907
 20
44.14843738779632
 30
0.0
  0
VERTEX
  5
61E
330
5D8
100
AcDbEntity
  8
LAY-1
  6
CONTINUOUS
 62
     3
100
AcDbVertex
100
AcDb2dVertex
 10
565.8574006837914
 20
44.18262993936139
 30
0.0
  0
VERTEX
  5
61F
330
5D8
100
AcDbEntity
  8
LAY-1
  6
CONTINUOUS
 62
     3
100
AcDbVertex
100
AcDb2dVertex
 10
565.6459935422532
 20
44.21389352718336
 30
0.0
  0
VERTEX
  5
620
330
5D8
100
AcDbEntity
  8
LAY-1
  6
CONTINUOUS
 62
     3
100
AcDbVertex
100
AcDb2dVertex
 10
565.4337590793538
 20
44.24221609855391
 30
0.0
  0
VERTEX
  5
621
330
5D8
100
AcDbEntity
  8
LAY-1
  6
CONTINUOUS
 62
     3
100
AcDbVertex
100
AcDb2dVertex
 10
565.2207791155182
 20
44.26758673458266
 30
0.0
  0
VERTEX
  5
622
330
5D8
100
AcDbEntity
  8
LAY-1
  6
CONTINUOUS
 62
     3
100
AcDbVertex
100
AcDb2dVertex
 10
565.0071357585772
 20
44.2899956544066
 30
0.0
  0
VERTEX
  5
623
330
5D8
100
AcDbEntity
  8
LAY-1
  6
CONTINUOUS
 62
     3
100
AcDbVertex
100
AcDb2dVertex
 10
564.7929113721118
 20
44.30943421896058
 30
0.0
  0
VERTEX
  5
624
330
5D8
100
AcDbEntity
  8
LAY-1
  6
CONTINUOUS
 62
     3
100
AcDbVertex
100
AcDb2dVertex
 10
564.5781885437007
 20
44.32589493430771
 30
0.0
  0
VERTEX
  5
625
330
5D8
100
AcDbEntity
  8
LAY-1
  6
CONTINUOUS
 62
     3
100
AcDbVertex
100
AcDb2dVertex
 10
564.3630500530817
 20
44.33937145452899
 30
0.0
  0
VERTEX
  5
626
330
5D8
100
AcDbEntity
  8
LAY-1
  6
CONTINUOUS
 62
     3
100
AcDbVertex
100
AcDb2dVertex
 10
564.1475788402382
 20
44.34985858416923
 30
0.0
  0
VERTEX
  5
627
330
5D8
100
AcDbEntity
  8
LAY-1
  6
CONTINUOUS
 62
     3
100
AcDbVertex
100
AcDb2dVertex
 10
563.9318579734247
 20
44.35735228024055
 30
0.0
  0
VERTEX
  5
628
330
5D8
100
AcDbEntity
  8
LAY-1
  6
CONTINUOUS
 62
     3
100
AcDbVertex
100
AcDb2dVertex
 10
563.7159706171418
 20
44.36184965378044
 30
0.0
  0
VERTEX
  5
629
330
5D8
100
AcDbEntity
  8
LAY-1
  6
CONTINUOUS
 62
     3
100
AcDbVertex
100
AcDb2dVertex
 10
563.5000000000746
 20
44.36334897096555
 30
0.0
  0
VERTEX
  5
62A
330
5D8
100
AcDbEntity
  8
LAY-1
  6
CONTINUOUS
 62
     3
100
AcDbVertex
100
AcDb2dVertex
 10
563.2840293830074
 20
44.36184965378072
 30
0.0
  0
VERTEX
  5
62B
330
5D8
100
AcDbEntity
  8
LAY-1
  6
CONTINUOUS
 62
     3
100
AcDbVertex
100
AcDb2dVertex
 10
563.0681420267244
 20
44.35735228024134
 30
0.0
  0
VERTEX
  5
62C
330
5D8
100
AcDbEntity
  8
LAY-1
  6
CONTINUOUS
 62
     3
100
AcDbVertex
100
AcDb2dVertex
 10
562.8524211599109
 20
44.34985858417036
 30
0.0
  0
VERTEX
  5
62D
330
5D8
100
AcDbEntity
  8
LAY-1
  6
CONTINUOUS
 62
     3
100
AcDbVertex
100
AcDb2dVertex
 10
562.6369499470674
 20
44.33937145453035
 30
0.0
  0
VERTEX
  5
62E
330
5D8
100
AcDbEntity
  8
LAY-1
  6
CONTINUOUS
 62
     3
100
AcDbVertex
100
AcDb2dVertex
 10
562.4218114564482
 20
44.32589493430947
 30
0.0
  0
VERTEX
  5
62F
330
5D8
100
AcDbEntity
  8
LAY-1
  6
CONTINUOUS
 62
     3
100
AcDbVertex
100
AcDb2dVertex
 10
562.2070886280368
 20
44.30943421896262
 30
0.0
  0
VERTEX
  5
630
330
5D8
100
AcDbEntity
  8
LAY-1
  6
CONTINUOUS
 62
     3
100
AcDbVertex
100
AcDb2dVertex
 10
561.992864241571
 20
44.28999565440921
 30
0.0
  0
VERTEX
  5
631
330
5D8
100
AcDbEntity
  8
LAY-1
  6
CONTINUOUS
 62
     3
100
AcDbVertex
100
AcDb2dVertex
 10
561.7792208846298
 20
44.26758673458556
 30
0.0
  0
VERTEX
  5
632
330
5D8
100
AcDbEntity
  8
LAY-1
  6
CONTINUOUS
 62
     3
100
AcDbVertex
100
AcDb2dVertex
 10
561.5662409207941
 20
44.24221609855704
 30
0.0
  0
VERTEX
  5
633
330
5D8
100
AcDbEntity
  8
LAY-1
  6
CONTINUOUS
 62
     3
100
AcDbVertex
100
AcDb2dVertex
 10
561.3540064578941
 20
44.21389352718677
 30
0.0
  0
VERTEX
  5
634
330
5D8
100
AcDbEntity
  8
LAY-1
  6
CONTINUOUS
 62
     3
100
AcDbVertex
100
AcDb2dVertex
 10
561.1425993163557
 20
44.1826299393652
 30
0.0
  0
VERTEX
  5
635
330
5D8
100
AcDbEntity
  8
LAY-1
  6
CONTINUOUS
 62
     3
100
AcDbVertex
100
AcDb2dVertex
 10
560.9321009976559
 20
44.14843738780047
 30
0.0
  0
VERTEX
  5
636
330
5D8
100
AcDbEntity
  8
LAY-1
  6
CONTINUOUS
 62
     3
100
AcDbVertex
100
AcDb2dVertex
 10
560.7225926529036
 20
44.11132905437205
 30
0.0
  0
VERTEX
  5
637
330
5D8
100
AcDbEntity
  8
LAY-1
  6
CONTINUOUS
 62
     3
100
AcDbVertex
100
AcDb2dVertex
 10
560.5141550515542
 20
44.07131924504893
 30
0.0
  0
VERTEX
  5
638
330
5D8
100
AcDbEntity
  8
LAY-1
  6
CONTINUOUS
 62
     3
100
AcDbVertex
100
AcDb2dVertex
 10
560.3068685502702
 20
44.02842338437426
 30
0.0
  0
VERTEX
  5
639
330
5D8
100
AcDbEntity
  8
LAY-1
  6
CONTINUOUS
 62
     3
100
AcDbVertex
100
AcDb2dVertex
 10
560.1008130619447
 20
43.98265800951901
 30
0.0
  0
VERTEX
  5
63A
330
5D8
100
AcDbEntity
  8
LAY-1
  6
CONTINUOUS
 62
     3
100
AcDbVertex
100
AcDb2dVertex
 10
559.89606802489
 20
43.93404076390613
 30
0.0
  0
VERTEX
  5
63B
330
5D8
100
AcDbEntity
  8
LAY-1
  6
CONTINUOUS
 62
     3
100
AcDbVertex
100
AcDb2dVertex
 10
559.6927123722156
 20
43.88259039040923
 30
0.0
  0
VERTEX
  5
63C
330
5D8
100
AcDbEntity
  8
LAY-1
  6
CONTINUOUS
 62
     3
100
AcDbVertex
100
AcDb2dVertex
 10
559.4908245013969
 20
43.82832672412707
 30
0.0
  0
VERTEX
  5
63D
330
5D8
100
AcDbEntity
  8
LAY-1
  6
CONTINUOUS
 62
     3
100
AcDbVertex
100
AcDb2dVertex
 10
559.2904822440511
 20
43.77127068473555
 30
0.0
  0
VERTEX
  5
63E
330
5D8
100
AcDbEntity
  8
LAY-1
  6
CONTINUOUS
 62
     3
100
AcDbVertex
100
AcDb2dVertex
 10
559.0917628359321
 20
43.7114442684242
 30
0.0
  0
VERTEX
  5
63F
330
5D8
100
AcDbEntity
  8
LAY-1
  6
CONTINUOUS
 62
     3
100
AcDbVertex
100
AcDb2dVertex
 10
558.8947428871543
 20
43.64887053941533
 30
0.0
  0
VERTEX
  5
640
330
5D8
100
AcDbEntity
  8
LAY-1
  6
CONTINUOUS
 62
     3
100
AcDbVertex
100
AcDb2dVertex
 10
558.6994983526588
 20
43.58357362107256
 30
0.0
  0
VERTEX
  5
641
330
5D8
100
AcDbEntity
  8
LAY-1
  6
CONTINUOUS
 62
     3
100
AcDbVertex
100
AcDb2dVertex
 10
558.50610450293
 20
43.51557868660092
 30
0.0
  0
VERTEX
  5
642
330
5D8
100
AcDbEntity
  8
LAY-1
  6
CONTINUOUS
 62
     3
100
AcDbVertex
100
AcDb2dVertex
 10
558.3146358949784
 20
43.44491194934193
 30
0.0
  0
VERTEX
  5
643
330
5D8
100
AcDbEntity
  8
LAY-1
  6
CONTINUOUS
 62
     3
100
AcDbVertex
100
AcDb2dVertex
 10
558.1251663435975
 20
43.37160065266823
 30
0.0
  0
VERTEX
  5
644
330
5D8
100
AcDbEntity
  8
LAY-1
  6
CONTINUOUS
 62
     3
100
AcDbVertex
100
AcDb2dVertex
 10
557.9377688929055
 20
43.29567305947984
 30
0.0
  0
VERTEX
  5
645
330
5D8
100
AcDbEntity
  8
LAY-1
  6
CONTINUOUS
 62
     3
100
AcDbVertex
100
AcDb2dVertex
 10
557.7525157881872
 20
43.21715844130961
 30
0.0
  0
VERTEX
  5
646
330
5D8
100
AcDbEntity
  8
LAY-1
  6
CONTINUOUS
 62
     3
100
AcDbVertex
100
AcDb2dVertex
 10
557.5694784480412
 20
43.13608706703735
 30
0.0
  0
VERTEX
  5
647
330
5D8
100
AcDbEntity
  8
LAY-1
  6
CONTINUOUS
 62
     3
100
AcDbVertex
100
AcDb2dVertex
 10
557.388727436846
 20
43.05249019122118
 30
0.0
  0
VERTEX
  5
648
330
5D8
100
AcDbEntity
  8
LAY-1
  6
CONTINUOUS
 62
     3
100
AcDbVertex
100
AcDb2dVertex
 10
557.2103324375574
 20
42.96640004204795
 30
0.0
  0
VERTEX
  5
649
330
5D8
100
AcDbEntity
  8
LAY-1
  6
CONTINUOUS
 62
     3
100
AcDbVertex
100
AcDb2dVertex
 10
557.0343622248433
 20
42.87784980890888
 30
0.0
  0
VERTEX
  5
64A
330
5D8
100
AcDbEntity
  8
LAY-1
  6
CONTINUOUS
 62
     3
100
AcDbVertex
100
AcDb2dVertex
 10
556.8608846385708
 20
42.78687362960471
 30
0.0
  0
VERTEX
  5
64B
330
5D8
100
AcDbEntity
  8
LAY-1
  6
CONTINUOUS
 62
     3
100
AcDbVertex
100
AcDb2dVertex
 10
556.6899665576512
 20
42.69350657718428
 30
0.0
  0
VERTEX
  5
64C
330
5D8
100
AcDbEntity
  8
LAY-1
  6
CONTINUOUS
 62
     3
100
AcDbVertex
100
AcDb2dVertex
 10
556.5216738742588
 20
42.59778464642358
 30
0.0
  0
VERTEX
  5
64D
330
5D8
100
AcDbEntity
  8
LAY-1
  6
CONTINUOUS
 62
     3
100
AcDbVertex
100
AcDb2dVertex
 10
556.3560714684263
 20
42.49974473994899
 30
0.0
  0
VERTEX
  5
64E
330
5D8
100
AcDbEntity
  8
LAY-1
  6
CONTINUOUS
 62
     3
100
AcDbVertex
100
AcDb2dVertex
 10
556.1932231830339
 20
42.39942465401089
 30
0.0
  0
VERTEX
  5
64F
330
5D8
100
AcDbEntity
  8
LAY-1
  6
CONTINUOUS
 62
     3
100
AcDbVertex
100
AcDb2dVertex
 10
556.0331917991952
 20
42.29686306391204
 30
0.0
  0
VERTEX
  5
650
330
5D8
100
AcDbEntity
  8
LAY-1
  6
CONTINUOUS
 62
     3
100
AcDbVertex
100
AcDb2dVertex
 10
555.8760390120549
 20
42.19209950909777
 30
0.0
  0
VERTEX
  5
651
330
5D8
100
AcDbEntity
  8
LAY-1
  6
CONTINUOUS
 62
     3
100
AcDbVertex
100
AcDb2dVertex
 10
555.7218254070044
 20
42.08517437791272
 30
0.0
  0
VERTEX
  5
652
330
5D8
100
AcDbEntity
  8
LAY-1
  6
CONTINUOUS
 62
     3
100
AcDbVertex
100
AcDb2dVertex
 10
555.5706104363237
 20
41.97612889203032
 30
0.0
  0
VERTEX
  5
653
330
5D8
100
AcDbEntity
  8
LAY-1
  6
CONTINUOUS
 62
     3
100
AcDbVertex
100
AcDb2dVertex
 10
555.4224523962628
 20
41.86500509056123
 30
0.0
  0
VERTEX
  5
654
330
5D8
100
AcDbEntity
  8
LAY-1
  6
CONTINUOUS
 62
     3
100
AcDbVertex
100
AcDb2dVertex
 10
555.2774084045661
 20
41.75184581384616
 30
0.0
  0
VERTEX
  5
655
330
5D8
100
AcDbEntity
  8
LAY-1
  6
CONTINUOUS
 62
     3
100
AcDbVertex
100
AcDb2dVertex
 10
555.1355343784542
 20
41.63669468694064
 30
0.0
  0
VERTEX
  5
656
330
5D8
100
AcDbEntity
  8
LAY-1
  6
CONTINUOUS
 62
     3
100
AcDbVertex
100
AcDb2dVertex
 10
554.9968850130639
 20
41.51959610279567
 30
0.0
  0
VERTEX
  5
657
330
5D8
100
AcDbEntity
  8
LAY-1
  6
CONTINUOUS
 62
     3
100
AcDbVertex
100
AcDb2dVertex
 10
554.8615137603651
 20
41.40059520514478
 30
0.0
  0
VERTEX
  5
658
330
5D8
100
AcDbEntity
  8
LAY-1
  6
CONTINUOUS
 62
     3
100
AcDbVertex
100
AcDb2dVertex
 10
554.7294728085533
 20
41.27973787109937
 30
0.0
  0
VERTEX
  5
659
330
5D8
100
AcDbEntity
  8
LAY-1
  6
CONTINUOUS
 62
     3
100
AcDbVertex
100
AcDb2dVertex
 10
554.6008130619283
 20
41.15707069346217
 30
0.0
  0
VERTEX
  5
65A
330
5D8
100
AcDbEntity
  8
LAY-1
  6
CONTINUOUS
 62
     3
100
AcDbVertex
100
AcDb2dVertex
 10
554.4755841212716
 20
41.03264096276524
 30
0.0
  0
VERTEX
  5
65B
330
5D8
100
AcDbEntity
  8
LAY-1
  6
CONTINUOUS
 62
     3
100
AcDbVertex
100
AcDb2dVertex
 10
554.3538342647238
 20
40.9064966490385
 30
0.0
  0
VERTEX
  5
65C
330
5D8
100
AcDbEntity
  8
LAY-1
  6
CONTINUOUS
 62
     3
100
AcDbVertex
100
AcDb2dVertex
 10
554.2356104291723
 20
40.77868638331614
 30
0.0
  0
VERTEX
  5
65D
330
5D8
100
AcDbEntity
  8
LAY-1
  6
CONTINUOUS
 62
     3
100
AcDbVertex
100
AcDb2dVertex
 10
554.1209581921561
 20
40.64925943888846
 30
0.0
  0
VERTEX
  5
65E
330
5D8
100
AcDbEntity
  8
LAY-1
  6
CONTINUOUS
 62
     3
100
AcDbVertex
100
AcDb2dVertex
 10
554.009921754295
 20
40.5182657123064
 30
0.0
  0
VERTEX
  5
65F
330
5D8
100
AcDbEntity
  8
LAY-1
  6
CONTINUOUS
 62
     3
100
AcDbVertex
100
AcDb2dVertex
 10
553.9025439222495
 20
40.38575570414503
 30
0.0
  0
VERTEX
  5
660
330
5D8
100
AcDbEntity
  8
LAY-1
  6
CONTINUOUS
 62
     3
100
AcDbVertex
100
AcDb2dVertex
 10
553.7988660922181
 20
40.25178049953519
 30
0.0
  0
VERTEX
  5
661
330
5D8
100
AcDbEntity
  8
LAY-1
  6
CONTINUOUS
 62
     3
100
AcDbVertex
100
AcDb2dVertex
 10
553.6989282339777
 20
40.11639174846823
 30
0.0
  0
VERTEX
  5
662
330
5D8
100
AcDbEntity
  8
LAY-1
  6
CONTINUOUS
 62
     3
100
AcDbVertex
100
AcDb2dVertex
 10
553.602768875475
 20
39.97964164588524
 30
0.0
  0
VERTEX
  5
663
330
5D8
100
AcDbEntity
  8
LAY-1
  6
CONTINUOUS
 62
     3
100
AcDbVertex
100
AcDb2dVertex
 10
553.5104250879733
 20
39.84158291155387
 30
0.0
  0
VERTEX
  5
664
330
5D8
100
AcDbEntity
  8
LAY-1
  6
CONTINUOUS
 62
     3
100
AcDbVertex
100
AcDb2dVertex
 10
553.4219324717604
 20
39.70226876974402
 30
0.0
  0
VERTEX
  5
665
330
5D8
100
AcDbEntity
  8
LAY-1
  6
CONTINUOUS
 62
     3
100
AcDbVertex
100
AcDb2dVertex
 10
553.3373251424246
 20
39.56175292870961
 30
0.0
  0
VERTEX
  5
666
330
5D8
100
AcDbEntity
  8
LAY-1
  6
CONTINUOUS
 62
     3
100
AcDbVertex
100
AcDb2dVertex
 10
553.2566357177017
 20
39.42008955998199
 30
0.0
  0
VERTEX
  5
667
330
5D8
100
AcDbEntity
  8
LAY-1
  6
CONTINUOUS
 62
     3
100
AcDbVertex
100
AcDb2dVertex
 10
553.179895304901
 20
39.27733327748672
 30
0.0
  0
VERTEX
  5
668
330
5D8
100
AcDbEntity
  8
LAY-1
  6
CONTINUOUS
 62
     3
100
AcDbVertex
100
AcDb2dVertex
 10
553.1071334889124
 20
39.13353911648801
 30
0.0
  0
VERTEX
  5
669
330
5D8
100
AcDbEntity
  8
LAY-1
  6
CONTINUOUS
 62
     3
100
AcDbVertex
100
AcDb2dVertex
 10
553.0383783208015
 20
38.98876251237226
 30
0.0
  0
VERTEX
  5
66A
330
5D8
100
AcDbEntity
  8
LAY-1
  6
CONTINUOUS
 62
     3
100
AcDbVertex
100
AcDb2dVertex
 10
552.9736563069938
 20
38.84305927927636
 30
0.0
  0
VERTEX
  5
66B
330
5D8
100
AcDbEntity
  8
LAY-1
  6
CONTINUOUS
 62
     3
100
AcDbVertex
100
AcDb2dVertex
 10
552.9129923990578
 20
38.69648558857011
 30
0.0
  0
VERTEX
  5
66C
330
5D8
100
AcDbEntity
  8
LAY-1
  6
CONTINUOUS
 62
     3
100
AcDbVertex
100
AcDb2dVertex
 10
552.8564099840848
 20
38.54909794720146
 30
0.0
  0
VERTEX
  5
66D
330
5D8
100
AcDbEntity
  8
LAY-1
  6
CONTINUOUS
 62
     3
100
AcDbVertex
100
AcDb2dVertex
 10
552.8039308756731
 20
38.40095317591187
 30
0.0
  0
VERTEX
  5
66E
330
5D8
100
AcDbEntity
  8
LAY-1
  6
CONTINUOUS
 62
     3
100
AcDbVertex
100
AcDb2dVertex
 10
552.755575305518
 20
38.25210838733079
 30
0.0
  0
VERTEX
  5
66F
330
5D8
100
AcDbEntity
  8
LAY-1
  6
CONTINUOUS
 62
     3
100
AcDbVertex
100
AcDb2dVertex
 10
552.7113619156122
 20
38.10262096395746
 30
0.0
  0
VERTEX
  5
670
330
5D8
100
AcDbEntity
  8
LAY-1
  6
CONTINUOUS
 62
     3
100
AcDbVertex
100
AcDb2dVertex
 10
552.671307751059
 20
37.95254853603939
 30
0.0
  0
VERTEX
  5
671
330
5D8
100
AcDbEntity
  8
LAY-1
  6
CONTINUOUS
 62
     3
100
AcDbVertex
100
AcDb2dVertex
 10
552.6354282535013
 20
37.80194895935404
 30
0.0
  0
VERTEX
  5
672
330
5D8
100
AcDbEntity
  8
LAY-1
  6
CONTINUOUS
 62
     3
100
AcDbVertex
100
AcDb2dVertex
 10
552.6037372551685
 20
37.65088029290524
 30
0.0
  0
VERTEX
  5
673
330
5D8
100
AcDbEntity
  8
LAY-1
  6
CONTINUOUS
 62
     3
100
AcDbVertex
100
AcDb2dVertex
 10
552.5762469735438
 20
37.49940077653963
 30
0.0
  0
VERTEX
  5
674
330
5D8
100
AcDbEntity
  8
LAY-1
  6
CONTINUOUS
 62
     3
100
AcDbVertex
100
AcDb2dVertex
 10
552.5529680066538
 20
37.34756880849426
 30
0.0
  0
VERTEX
  5
675
330
5D8
100
AcDbEntity
  8
LAY-1
  6
CONTINUOUS
 62
     3
100
AcDbVertex
100
AcDb2dVertex
 10
552.5339093289838
 20
37.19544292288305
 30
0.0
  0
VERTEX
  5
676
330
5D8
100
AcDbEntity
  8
LAY-1
  6
CONTINUOUS
 62
     3
100
AcDbVertex
100
AcDb2dVertex
 10
552.5190782880163
 20
37.04308176713073
 30
0.0
  0
VERTEX
  5
677
330
5D8
100
AcDbEntity
  8
LAY-1
  6
CONTINUOUS
 62
     3
100
AcDbVertex
100
AcDb2dVertex
 10
552.5084806014005
 20
36.89054407936322
 30
0.0
  0
VERTEX
  5
678
330
5D8
100
AcDbEntity
  8
LAY-1
  6
CONTINUOUS
 62
     3
100
AcDbVertex
100
AcDb2dVertex
 10
552.5021203547457
 20
36.73788866576274
 30
0.0
  0
VERTEX
  5
679
330
5D8
100
AcDbEntity
  8
LAY-1
  6
CONTINUOUS
 62
     3
100
AcDbVertex
100
AcDb2dVertex
 10
552.5000000000488
 20
36.58517437789737
 30
0.0
  0
VERTEX
  5
67A
330
5D8
100
AcDbEntity
  8
LAY-1
  6
CONTINUOUS
 62
     3
100
AcDbVertex
100
AcDb2dVertex
 10
552.5021203547462
 20
36.43246009003201
 30
0.0
  0
VERTEX
  5
67B
330
5D8
100
AcDbEntity
  8
LAY-1
  6
CONTINUOUS
 62
     3
100
AcDbVertex
100
AcDb2dVertex
 10
552.5084806014014
 20
36.27980467643164
 30
0.0
  0
VERTEX
  5
67C
330
5D8
100
AcDbEntity
  8
LAY-1
  6
CONTINUOUS
 62
     3
100
AcDbVertex
100
AcDb2dVertex
 10
552.5190782880175
 20
36.12726698866413
 30
0.0
  0
VERTEX
  5
67D
330
5D8
100
AcDbEntity
  8
LAY-1
  6
CONTINUOUS
 62
     3
100
AcDbVertex
100
AcDb2dVertex
 10
552.5339093289853
 20
35.97490583291182
 30
0.0
  0
VERTEX
  5
67E
330
5D8
100
AcDbEntity
  8
LAY-1
  6
CONTINUOUS
 62
     3
100
AcDbVertex
100
AcDb2dVertex
 10
552.552968006656
 20
35.82277994730072
 30
0.0
  0
VERTEX
  5
67F
330
5D8
100
AcDbEntity
  8
LAY-1
  6
CONTINUOUS
 62
     3
100
AcDbVertex
100
AcDb2dVertex
 10
552.5762469735463
 20
35.67094797925552
 30
0.0
  0
VERTEX
  5
680
330
5D8
100
AcDbEntity
  8
LAY-1
  6
CONTINUOUS
 62
     3
100
AcDbVertex
100
AcDb2dVertex
 10
552.6037372551714
 20
35.5194684628899
 30
0.0
  0
VERTEX
  5
681
330
5D8
100
AcDbEntity
  8
LAY-1
  6
CONTINUOUS
 62
     3
100
AcDbVertex
100
AcDb2dVertex
 10
552.6354282535045
 20
35.36839979644122
 30
0.0
  0
VERTEX
  5
682
330
5D8
100
AcDbEntity
  8
LAY-1
  6
CONTINUOUS
 62
     3
100
AcDbVertex
100
AcDb2dVertex
 10
552.6713077510626
 20
35.21780021975621
 30
0.0
  0
VERTEX
  5
683
330
5D8
100
AcDbEntity
  8
LAY-1
  6
CONTINUOUS
 62
     3
100
AcDbVertex
100
AcDb2dVertex
 10
552.7113619156163
 20
35.06772779183825
 30
0.0
  0
VERTEX
  5
684
330
5D8
100
AcDbEntity
  8
LAY-1
  6
CONTINUOUS
 62
     3
100
AcDbVertex
100
AcDb2dVertex
 10
552.7555753055226
 20
34.91824036846509
 30
0.0
  0
VERTEX
  5
685
330
5D8
100
AcDbEntity
  8
LAY-1
  6
CONTINUOUS
 62
     3
100
AcDbVertex
100
AcDb2dVertex
 10
552.8039308756782
 20
34.76939557988413
 30
0.0
  0
VERTEX
  5
686
330
5D8
100
AcDbEntity
  8
LAY-1
  6
CONTINUOUS
 62
     3
100
AcDbVertex
100
AcDb2dVertex
 10
552.8564099840903
 20
34.62125080859482
 30
0.0
  0
VERTEX
  5
687
330
5D8
100
AcDbEntity
  8
LAY-1
  6
CONTINUOUS
 62
     3
100
AcDbVertex
100
AcDb2dVertex
 10
552.9129923990633
 20
34.47386316722651
 30
0.0
  0
VERTEX
  5
688
330
5D8
100
AcDbEntity
  8
LAY-1
  6
CONTINUOUS
 62
     3
100
AcDbVertex
100
AcDb2dVertex
 10
552.9736563069997
 20
34.32728947652049
 30
0.0
  0
VERTEX
  5
689
330
5D8
100
AcDbEntity
  8
LAY-1
  6
CONTINUOUS
 62
     3
100
AcDbVertex
100
AcDb2dVertex
 10
553.0383783208079
 20
34.18158624342476
 30
0.0
  0
VERTEX
  5
68A
330
5D8
100
AcDbEntity
  8
LAY-1
  6
CONTINUOUS
 62
     3
100
AcDbVertex
100
AcDb2dVertex
 10
553.1071334889192
 20
34.0368096393093
 30
0.0
  0
VERTEX
  5
68B
330
5D8
100
AcDbEntity
  8
LAY-1
  6
CONTINUOUS
 62
     3
100
AcDbVertex
100
AcDb2dVertex
 10
553.1798953049081
 20
33.89301547831087
 30
0.0
  0
VERTEX
  5
68C
330
5D8
100
AcDbEntity
  8
LAY-1
  6
CONTINUOUS
 62
     3
100
AcDbVertex
100
AcDb2dVertex
 10
553.2566357177091
 20
33.75025919581606
 30
0.0
  0
VERTEX
  5
68D
330
5D8
100
AcDbEntity
  8
LAY-1
  6
CONTINUOUS
 62
     3
100
AcDbVertex
100
AcDb2dVertex
 10
553.3373251424323
 20
33.60859582708883
 30
0.0
  0
VERTEX
  5
68E
330
5D8
100
AcDbEntity
  8
LAY-1
  6
CONTINUOUS
 62
     3
100
AcDbVertex
100
AcDb2dVertex
 10
553.4219324717683
 20
33.46807998605465
 30
0.0
  0
VERTEX
  5
68F
330
5D8
100
AcDbEntity
  8
LAY-1
  6
CONTINUOUS
 62
     3
100
AcDbVertex
100
AcDb2dVertex
 10
553.5104250879815
 20
33.32876584424525
 30
0.0
  0
VERTEX
  5
690
330
5D8
100
AcDbEntity
  8
LAY-1
  6
CONTINUOUS
 62
     3
100
AcDbVertex
100
AcDb2dVertex
 10
553.6027688754835
 20
33.19070710991411
 30
0.0
  0
VERTEX
  5
691
330
5D8
100
AcDbEntity
  8
LAY-1
  6
CONTINUOUS
 62
     3
100
AcDbVertex
100
AcDb2dVertex
 10
553.6989282339865
 20
33.05395700733152
 30
0.0
  0
VERTEX
  5
692
330
5D8
100
AcDbEntity
  8
LAY-1
  6
CONTINUOUS
 62
     3
100
AcDbVertex
100
AcDb2dVertex
 10
553.7988660922272
 20
32.91856825626508
 30
0.0
  0
VERTEX
  5
693
330
5D8
100
AcDbEntity
  8
LAY-1
  6
CONTINUOUS
 62
     3
100
AcDbVertex
100
AcDb2dVertex
 10
553.9025439222589
 20
32.78459305165552
 30
0.0
  0
VERTEX
  5
694
330
5D8
100
AcDbEntity
  8
LAY-1
  6
CONTINUOUS
 62
     3
100
AcDbVertex
100
AcDb2dVertex
 10
554.0099217543045
 20
32.65208304349477
 30
0.0
  0
VERTEX
  5
695
330
5D8
100
AcDbEntity
  8
LAY-1
  6
CONTINUOUS
 62
     3
100
AcDbVertex
100
AcDb2dVertex
 10
554.1209581921656
 20
32.52108931691305
 30
0.0
  0
VERTEX
  5
696
330
5D8
100
AcDbEntity
  8
LAY-1
  6
CONTINUOUS
 62
     3
100
AcDbVertex
100
AcDb2dVertex
 10
554.235610429182
 20
32.39166237248577
 30
0.0
  0
VERTEX
  5
697
330
5D8
100
AcDbEntity
  8
LAY-1
  6
CONTINUOUS
 62
     3
100
AcDbVertex
100
AcDb2dVertex
 10
554.3538342647337
 20
32.26385210676386
 30
0.0
  0
VERTEX
  5
698
330
5D8
100
AcDbEntity
  8
LAY-1
  6
CONTINUOUS
 62
     3
100
AcDbVertex
100
AcDb2dVertex
 10
554.4755841212816
 20
32.13770779303763
 30
0.0
  0
VERTEX
  5
699
330
5D8
100
AcDbEntity
  8
LAY-1
  6
CONTINUOUS
 62
     3
100
AcDbVertex
100
AcDb2dVertex
 10
554.6008130619385
 20
32.01327806234127
 30
0.0
  0
VERTEX
  5
69A
330
5D8
100
AcDbEntity
  8
LAY-1
  6
CONTINUOUS
 62
     3
100
AcDbVertex
100
AcDb2dVertex
 10
554.7294728085635
 20
31.89061088470447
 30
0.0
  0
VERTEX
  5
69B
330
5D8
100
AcDbEntity
  8
LAY-1
  6
CONTINUOUS
 62
     3
100
AcDbVertex
100
AcDb2dVertex
 10
554.8615137603757
 20
31.76975355065946
 30
0.0
  0
VERTEX
  5
69C
330
5D8
100
AcDbEntity
  8
LAY-1
  6
CONTINUOUS
 62
     3
100
AcDbVertex
100
AcDb2dVertex
 10
554.9968850130745
 20
31.65075265300919
 30
0.0
  0
VERTEX
  5
69D
330
5D8
100
AcDbEntity
  8
LAY-1
  6
CONTINUOUS
 62
     3
100
AcDbVertex
100
AcDb2dVertex
 10
555.1355343784649
 20
31.53365406886485
 30
0.0
  0
VERTEX
  5
69E
330
5D8
100
AcDbEntity
  8
LAY-1
  6
CONTINUOUS
 62
     3
100
AcDbVertex
100
AcDb2dVertex
 10
555.2774084045769
 20
31.41850294195973
 30
0.0
  0
VERTEX
  5
69F
330
5D8
100
AcDbEntity
  8
LAY-1
  6
CONTINUOUS
 62
     3
100
AcDbVertex
100
AcDb2dVertex
 10
555.4224523962736
 20
31.30534366524523
 30
0.0
  0
VERTEX
  5
6A0
330
5D8
100
AcDbEntity
  8
LAY-1
  6
CONTINUOUS
 62
     3
100
AcDbVertex
100
AcDb2dVertex
 10
555.5706104363345
 20
31.19421986377677
 30
0.0
  0
VERTEX
  5
6A1
330
5D8
100
AcDbEntity
  8
LAY-1
  6
CONTINUOUS
 62
     3
100
AcDbVertex
100
AcDb2dVertex
 10
555.7218254070151
 20
31.08517437789487
 30
0.0
  0
VERTEX
  5
6A2
330
5D8
100
AcDbEntity
  8
LAY-1
  6
CONTINUOUS
 62
     3
100
AcDbVertex
100
AcDb2dVertex
 10
555.8760390120658
 20
30.97824924671039
 30
0.0
  0
VERTEX
  5
6A3
330
5D8
100
AcDbEntity
  8
LAY-1
  6
CONTINUOUS
 62
     3
100
AcDbVertex
100
AcDb2dVertex
 10
556.033191799206
 20
30.87348569189669
 30
0.0
  0
VERTEX
  5
6A4
330
5D8
100
AcDbEntity
  8
LAY-1
  6
CONTINUOUS
 62
     3
100
AcDbVertex
100
AcDb2dVertex
 10
556.1932231830444
 20
30.7709241017983
 30
0.0
  0
VERTEX
  5
6A5
330
5D8
100
AcDbEntity
  8
LAY-1
  6
CONTINUOUS
 62
     3
100
AcDbVertex
100
AcDb2dVertex
 10
556.356071468437
 20
30.67060401586076
 30
0.0
  0
VERTEX
  5
6A6
330
5D8
100
AcDbEntity
  8
LAY-1
  6
CONTINUOUS
 62
     3
100
AcDbVertex
100
AcDb2dVertex
 10
556.5216738742696
 20
30.57256410938686
 30
0.0
  0
VERTEX
  5
6A7
330
5D8
100
AcDbEntity
  8
LAY-1
  6
CONTINUOUS
 62
     3
100
AcDbVertex
100
AcDb2dVertex
 10
556.689966557662
 20
30.47684217862667
 30
0.0
  0
VERTEX
  5
6A8
330
5D8
100
AcDbEntity
  8
LAY-1
  6
CONTINUOUS
 62
     3
100
AcDbVertex
100
AcDb2dVertex
 10
556.8608846385812
 20
30.38347512620669
 30
0.0
  0
VERTEX
  5
6A9
330
5D8
100
AcDbEntity
  8
LAY-1
  6
CONTINUOUS
 62
     3
100
AcDbVertex
100
AcDb2dVertex
 10
557.0343622248537
 20
30.29249894690309
 30
0.0
  0
VERTEX
  5
6AA
330
5D8
100
AcDbEntity
  8
LAY-1
  6
CONTINUOUS
 62
     3
100
AcDbVertex
100
AcDb2dVertex
 10
557.2103324375677
 20
30.2039487137647
 30
0.0
  0
VERTEX
  5
6AB
330
5D8
100
AcDbEntity
  8
LAY-1
  6
CONTINUOUS
 62
     3
100
AcDbVertex
100
AcDb2dVertex
 10
557.3887274368561
 20
30.11785856459204
 30
0.0
  0
VERTEX
  5
6AC
330
5D8
100
AcDbEntity
  8
LAY-1
  6
CONTINUOUS
 62
     3
100
AcDbVertex
100
AcDb2dVertex
 10
557.5694784480512
 20
30.03426168877633
 30
0.0
  0
VERTEX
  5
6AD
330
5D8
100
AcDbEntity
  8
LAY-1
  6
CONTINUOUS
 62
     3
100
AcDbVertex
100
AcDb2dVertex
 10
557.752515788197
 20
29.95319031450458
 30
0.0
  0
VERTEX
  5
6AE
330
5D8
100
AcDbEntity
  8
LAY-1
  6
CONTINUOUS
 62
     3
100
AcDbVertex
100
AcDb2dVertex
 10
557.9377688929152
 20
29.87467569633503
 30
0.0
  0
VERTEX
  5
6AF
330
5D8
100
AcDbEntity
  8
LAY-1
  6
CONTINUOUS
 62
     3
100
AcDbVertex
100
AcDb2dVertex
 10
558.1251663436068
 20
29.79874810314726
 30
0.0
  0
VERTEX
  5
6B0
330
5D8
100
AcDbEntity
  8
LAY-1
  6
CONTINUOUS
 62
     3
100
AcDbVertex
100
AcDb2dVertex
 10
558.3146358949876
 20
29.72543680647408
 30
0.0
  0
VERTEX
  5
6B1
330
5D8
100
AcDbEntity
  8
LAY-1
  6
CONTINUOUS
 62
     3
100
AcDbVertex
100
AcDb2dVertex
 10
558.5061045029389
 20
29.65477006921566
 30
0.0
  0
VERTEX
  5
6B2
330
5D8
100
AcDbEntity
  8
LAY-1
  6
CONTINUOUS
 62
     3
100
AcDbVertex
100
AcDb2dVertex
 10
558.6994983526675
 20
29.58677513474458
 30
0.0
  0
VERTEX
  5
6B3
330
5D8
100
AcDbEntity
  8
LAY-1
  6
CONTINUOUS
 62
     3
100
AcDbVertex
100
AcDb2dVertex
 10
558.8947428871628
 20
29.52147821640239
 30
0.0
  0
VERTEX
  5
6B4
330
5D8
100
AcDbEntity
  8
LAY-1
  6
CONTINUOUS
 62
     3
100
AcDbVertex
100
AcDb2dVertex
 10
559.0917628359401
 20
29.45890448739402
 30
0.0
  0
VERTEX
  5
6B5
330
5D8
100
AcDbEntity
  8
LAY-1
  6
CONTINUOUS
 62
     3
100
AcDbVertex
100
AcDb2dVertex
 10
559.290482244059
 20
29.39907807108318
 30
0.0
  0
VERTEX
  5
6B6
330
5D8
100
AcDbEntity
  8
LAY-1
  6
CONTINUOUS
 62
     3
100
AcDbVertex
100
AcDb2dVertex
 10
559.4908245014043
 20
29.3420220316923
 30
0.0
  0
VERTEX
  5
6B7
330
5D8
100
AcDbEntity
  8
LAY-1
  6
CONTINUOUS
 62
     3
100
AcDbVertex
100
AcDb2dVertex
 10
559.6927123722229
 20
29.28775836541047
 30
0.0
  0
VERTEX
  5
6B8
330
5D8
100
AcDbEntity
  8
LAY-1
  6
CONTINUOUS
 62
     3
100
AcDbVertex
100
AcDb2dVertex
 10
559.8960680248969
 20
29.23630799191432
 30
0.0
  0
VERTEX
  5
6B9
330
5D8
100
AcDbEntity
  8
LAY-1
  6
CONTINUOUS
 62
     3
100
AcDbVertex
100
AcDb2dVertex
 10
560.1008130619513
 20
29.18769074630183
 30
0.0
  0
VERTEX
  5
6BA
330
5D8
100
AcDbEntity
  8
LAY-1
  6
CONTINUOUS
 62
     3
100
AcDbVertex
100
AcDb2dVertex
 10
560.3068685502766
 20
29.14192537144703
 30
0.0
  0
VERTEX
  5
6BB
330
5D8
100
AcDbEntity
  8
LAY-1
  6
CONTINUOUS
 62
     3
100
AcDbVertex
100
AcDb2dVertex
 10
560.5141550515599
 20
29.09902951077282
 30
0.0
  0
VERTEX
  5
6BC
330
5D8
100
AcDbEntity
  8
LAY-1
  6
CONTINUOUS
 62
     3
100
AcDbVertex
100
AcDb2dVertex
 10
560.7225926529092
 20
29.05901970145027
 30
0.0
  0
VERTEX
  5
6BD
330
5D8
100
AcDbEntity
  8
LAY-1
  6
CONTINUOUS
 62
     3
100
AcDbVertex
100
AcDb2dVertex
 10
560.932100997661
 20
29.02191136802242
 30
0.0
  0
VERTEX
  5
6BE
330
5D8
100
AcDbEntity
  8
LAY-1
  6
CONTINUOUS
 62
     3
100
AcDbVertex
100
AcDb2dVertex
 10
561.1425993163604
 20
28.98771881645814
 30
0.0
  0
VERTEX
  5
6BF
330
5D8
100
AcDbEntity
  8
LAY-1
  6
CONTINUOUS
 62
     3
100
AcDbVertex
100
AcDb2dVertex
 10
561.3540064578987
 20
28.95645522863703
 30
0.0
  0
VERTEX
  5
6C0
330
5D8
100
AcDbEntity
  8
LAY-1
  6
CONTINUOUS
 62
     3
100
AcDbVertex
100
AcDb2dVertex
 10
561.5662409207981
 20
28.92813265726716
 30
0.0
  0
VERTEX
  5
6C1
330
5D8
100
AcDbEntity
  8
LAY-1
  6
CONTINUOUS
 62
     3
100
AcDbVertex
100
AcDb2dVertex
 10
561.7792208846334
 20
28.90276202123908
 30
0.0
  0
VERTEX
  5
6C2
330
5D8
100
AcDbEntity
  8
LAY-1
  6
CONTINUOUS
 62
     3
100
AcDbVertex
100
AcDb2dVertex
 10
561.992864241574
 20
28.88035310141589
 30
0.0
  0
VERTEX
  5
6C3
330
5D8
100
AcDbEntity
  8
LAY-1
  6
CONTINUOUS
 62
     3
100
AcDbVertex
100
AcDb2dVertex
 10
562.2070886280395
 20
28.86091453686282
 30
0.0
  0
VERTEX
  5
6C4
330
5D8
100
AcDbEntity
  8
LAY-1
  6
CONTINUOUS
 62
     3
100
AcDbVertex
100
AcDb2dVertex
 10
562.4218114564504
 20
28.84445382151648
 30
0.0
  0
VERTEX
  5
6C5
330
5D8
100
AcDbEntity
  8
LAY-1
  6
CONTINUOUS
 62
     3
100
AcDbVertex
100
AcDb2dVertex
 10
562.6369499470692
 20
28.83097730129589
 30
0.0
  0
VERTEX
  5
6C6
330
5D8
100
AcDbEntity
  8
LAY-1
  6
CONTINUOUS
 62
     3
100
AcDbVertex
100
AcDb2dVertex
 10
562.8524211599125
 20
28.82049017165633
 30
0.0
  0
VERTEX
  5
6C7
330
5D8
100
AcDbEntity
  8
LAY-1
  6
CONTINUOUS
 62
     3
100
AcDbVertex
100
AcDb2dVertex
 10
563.0681420267255
 20
28.81299647558575
 30
0.0
  0
VERTEX
  5
6C8
330
5D8
100
AcDbEntity
  8
LAY-1
  6
CONTINUOUS
 62
     3
100
AcDbVertex
100
AcDb2dVertex
 10
563.2840293830083
 20
28.80849910204677
 30
0.0
  0
VERTEX
  5
6C9
330
5D8
100
AcDbEntity
  8
LAY-1
  6
CONTINUOUS
 62
     3
100
AcDbVertex
100
AcDb2dVertex
 10
563.5000000000749
 20
28.80699978486228
 30
0.0
  0
VERTEX
  5
6CA
330
5D8
100
AcDbEntity
  8
LAY-1
  6
CONTINUOUS
 62
     3
100
AcDbVertex
100
AcDb2dVertex
 10
563.7159706171416
 20
28.80849910204779
 30
0.0
  0
VERTEX
  5
6CB
330
5D8
100
AcDbEntity
  8
LAY-1
  6
CONTINUOUS
 62
     3
100
AcDbVertex
100
AcDb2dVertex
 10
563.9318579734244
 20
28.81299647558797
 30
0.0
  0
VERTEX
  5
6CC
330
5D8
100
AcDbEntity
  8
LAY-1
  6
CONTINUOUS
 62
     3
100
AcDbVertex
100
AcDb2dVertex
 10
564.1475788402373
 20
28.82049017165963
 30
0.0
  0
VERTEX
  5
6CD
330
5D8
100
AcDbEntity
  8
LAY-1
  6
CONTINUOUS
 62
     3
100
AcDbVertex
100
AcDb2dVertex
 10
564.3630500530802
 20
28.83097730130032
 30
0.0
  0
VERTEX
  5
6CE
330
5D8
100
AcDbEntity
  8
LAY-1
  6
CONTINUOUS
 62
     3
100
AcDbVertex
100
AcDb2dVertex
 10
564.5781885436988
 20
28.84445382152188
 30
0.0
  0
VERTEX
  5
6CF
330
5D8
100
AcDbEntity
  8
LAY-1
  6
CONTINUOUS
 62
     3
100
AcDbVertex
100
AcDb2dVertex
 10
564.7929113721094
 20
28.86091453686919
 30
0.0
  0
VERTEX
  5
6D0
330
5D8
100
AcDbEntity
  8
LAY-1
  6
CONTINUOUS
 62
     3
100
AcDbVertex
100
AcDb2dVertex
 10
565.0071357585746
 20
28.8803531014234
 30
0.0
  0
VERTEX
  5
6D1
330
5D8
100
AcDbEntity
  8
LAY-1
  6
CONTINUOUS
 62
     3
100
AcDbVertex
100
AcDb2dVertex
 10
565.2207791155151
 20
28.90276202124755
 30
0.0
  0
VERTEX
  5
6D2
330
5D8
100
AcDbEntity
  8
LAY-1
  6
CONTINUOUS
 62
     3
100
AcDbVertex
100
AcDb2dVertex
 10
565.4337590793502
 20
28.92813265727665
 30
0.0
  0
VERTEX
  5
6D3
330
5D8
100
AcDbEntity
  8
LAY-1
  6
CONTINUOUS
 62
     3
100
AcDbVertex
100
AcDb2dVertex
 10
565.6459935422492
 20
28.95645522864749
 30
0.0
  0
VERTEX
  5
6D4
330
5D8
100
AcDbEntity
  8
LAY-1
  6
CONTINUOUS
 62
     3
100
AcDbVertex
100
AcDb2dVertex
 10
565.857400683787
 20
28.98771881646962
 30
0.0
  0
VERTEX
  5
6D5
330
5D8
100
AcDbEntity
  8
LAY-1
  6
CONTINUOUS
 62
     3
100
AcDbVertex
100
AcDb2dVertex
 10
566.067899002486
 20
29.02191136803498
 30
0.0
  0
VERTEX
  5
6D6
330
5D8
100
AcDbEntity
  8
LAY-1
  6
CONTINUOUS
 62
     3
100
AcDbVertex
100
AcDb2dVertex
 10
566.2774073472374
 20
29.0590197014638
 30
0.0
  0
VERTEX
  5
6D7
330
5D8
100
AcDbEntity
  8
LAY-1
  6
CONTINUOUS
 62
     3
100
AcDbVertex
100
AcDb2dVertex
 10
566.485844948586
 20
29.09902951078737
 30
0.0
  0
VERTEX
  5
6D8
330
5D8
100
AcDbEntity
  8
LAY-1
  6
CONTINUOUS
 62
     3
100
AcDbVertex
100
AcDb2dVertex
 10
566.6931314498688
 20
29.14192537146243
 30
0.0
  0
VERTEX
  5
6D9
330
5D8
100
AcDbEntity
  8
LAY-1
  6
CONTINUOUS
 62
     3
100
AcDbVertex
100
AcDb2dVertex
 10
566.8991869381938
 20
29.18769074631831
 30
0.0
  0
VERTEX
  5
6DA
330
5D8
100
AcDbEntity
  8
LAY-1
  6
CONTINUOUS
 62
     3
100
AcDbVertex
100
AcDb2dVertex
 10
567.1039319752474
 20
29.23630799193154
 30
0.0
  0
VERTEX
  5
6DB
330
5D8
100
AcDbEntity
  8
LAY-1
  6
CONTINUOUS
 62
     3
100
AcDbVertex
100
AcDb2dVertex
 10
567.3072876279208
 20
29.28775836542866
 30
0.0
  0
VERTEX
  5
6DC
330
5D8
100
AcDbEntity
  8
LAY-1
  6
CONTINUOUS
 62
     3
100
AcDbVertex
100
AcDb2dVertex
 10
567.5091754987385
 20
29.34202203171134
 30
0.0
  0
VERTEX
  5
6DD
330
5D8
100
AcDbEntity
  8
LAY-1
  6
CONTINUOUS
 62
     3
100
AcDbVertex
100
AcDb2dVertex
 10
567.7095177560834
 20
29.39907807110308
 30
0.0
  0
VERTEX
  5
6DE
330
5D8
100
AcDbEntity
  8
LAY-1
  6
CONTINUOUS
 62
     3
100
AcDbVertex
100
AcDb2dVertex
 10
567.9082371642014
 20
29.45890448741477
 30
0.0
  0
VERTEX
  5
6DF
330
5D8
100
AcDbEntity
  8
LAY-1
  6
CONTINUOUS
 62
     3
100
AcDbVertex
100
AcDb2dVertex
 10
568.105257112978
 20
29.52147821642393
 30
0.0
  0
VERTEX
  5
6E0
330
5D8
100
AcDbEntity
  8
LAY-1
  6
CONTINUOUS
 62
     3
100
AcDbVertex
100
AcDb2dVertex
 10
568.3005016474726
 20
29.58677513476692
 30
0.0
  0
VERTEX
  5
6E1
330
5D8
100
AcDbEntity
  8
LAY-1
  6
CONTINUOUS
 62
     3
100
AcDbVertex
100
AcDb2dVertex
 10
568.4938954972001
 20
29.65477006923879
 30
0.0
  0
VERTEX
  5
6E2
330
5D8
100
AcDbEntity
  8
LAY-1
  6
CONTINUOUS
 62
     3
100
AcDbVertex
100
AcDb2dVertex
 10
568.6853641051507
 20
29.72543680649784
 30
0.0
  0
VERTEX
  5
6E3
330
5D8
100
AcDbEntity
  8
LAY-1
  6
CONTINUOUS
 62
     3
100
AcDbVertex
100
AcDb2dVertex
 10
568.8748336565307
 20
29.79874810317176
 30
0.0
  0
VERTEX
  5
6E4
330
5D8
100
AcDbEntity
  8
LAY-1
  6
CONTINUOUS
 62
     3
100
AcDbVertex
100
AcDb2dVertex
 10
569.0622311072214
 20
29.8746756963601
 30
0.0
  0
VERTEX
  5
6E5
330
5D8
100
AcDbEntity
  8
LAY-1
  6
CONTINUOUS
 62
     3
100
AcDbVertex
100
AcDb2dVertex
 10
569.2474842119384
 20
29.95319031453033
 30
0.0
  0
VERTEX
  5
6E6
330
5D8
100
AcDbEntity
  8
LAY-1
  6
CONTINUOUS
 62
     3
100
AcDbVertex
100
AcDb2dVertex
 10
569.4305215520835
 20
30.0342616888027
 30
0.0
  0
VERTEX
  5
6E7
330
5D8
100
AcDbEntity
  8
LAY-1
  6
CONTINUOUS
 62
     3
100
AcDbVertex
100
AcDb2dVertex
 10
569.6112725632776
 20
30.11785856461893
 30
0.0
  0
VERTEX
  5
6E8
330
5D8
100
AcDbEntity
  8
LAY-1
  6
CONTINUOUS
 62
     3
100
AcDbVertex
100
AcDb2dVertex
 10
569.7896675625652
 20
30.20394871379233
 30
0.0
  0
VERTEX
  5
6E9
330
5D8
100
AcDbEntity
  8
LAY-1
  6
CONTINUOUS
 62
     3
100
AcDbVertex
100
AcDb2dVertex
 10
569.965637775278
 20
30.29249894693118
 30
0.0
  0
VERTEX
  5
6EA
330
5D8
100
AcDbEntity
  8
LAY-1
  6
CONTINUOUS
 62
     3
100
AcDbVertex
100
AcDb2dVertex
 10
570.1391153615497
 20
30.38347512623528
 30
0.0
  0
VERTEX
  5
6EB
330
5D8
100
AcDbEntity
  8
LAY-1
  6
CONTINUOUS
 62
     3
100
AcDbVertex
100
AcDb2dVertex
 10
570.3100334424679
 20
30.47684217865566
 30
0.0
  0
VERTEX
  5
6EC
330
5D8
100
AcDbEntity
  8
LAY-1
  6
CONTINUOUS
 62
     3
100
AcDbVertex
100
AcDb2dVertex
 10
570.4783261258593
 20
30.57256410941625
 30
0.0
  0
VERTEX
  5
6ED
330
5D8
100
AcDbEntity
  8
LAY-1
  6
CONTINUOUS
 62
     3
100
AcDbVertex
100
AcDb2dVertex
 10
570.6439285316908
 20
30.67060401589072
 30
0.0
  0
VERTEX
  5
6EE
330
5D8
100
AcDbEntity
  8
LAY-1
  6
CONTINUOUS
 62
     3
100
AcDbVertex
100
AcDb2dVertex
 10
570.8067768170823
 20
30.77092410182854
 30
0.0
  0
VERTEX
  5
6EF
330
5D8
100
AcDbEntity
  8
LAY-1
  6
CONTINUOUS
 62
     3
100
AcDbVertex
100
AcDb2dVertex
 10
570.9668082009201
 20
30.87348569192727
 30
0.0
  0
VERTEX
  5
6F0
330
5D8
100
AcDbEntity
  8
LAY-1
  6
CONTINUOUS
 62
     3
100
AcDbVertex
100
AcDb2dVertex
 10
571.1239609880591
 20
30.9782492467412
 30
0.0
  0
VERTEX
  5
6F1
330
5D8
100
AcDbEntity
  8
LAY-1
  6
CONTINUOUS
 62
     3
100
AcDbVertex
100
AcDb2dVertex
 10
571.2781745931085
 20
31.08517437792597
 30
0.0
  0
VERTEX
  5
6F2
330
5D8
100
AcDbEntity
  8
LAY-1
  6
CONTINUOUS
 62
     3
100
AcDbVertex
100
AcDb2dVertex
 10
571.4293895637882
 20
31.19421986380803
 30
0.0
  0
VERTEX
  5
6F3
330
5D8
100
AcDbEntity
  8
LAY-1
  6
CONTINUOUS
 62
     3
100
AcDbVertex
100
AcDb2dVertex
 10
571.5775476038481
 20
31.30534366527684
 30
0.0
  0
VERTEX
  5
6F4
330
5D8
100
AcDbEntity
  8
LAY-1
  6
CONTINUOUS
 62
     3
100
AcDbVertex
100
AcDb2dVertex
 10
571.7225915955437
 20
31.41850294199145
 30
0.0
  0
VERTEX
  5
6F5
330
5D8
100
AcDbEntity
  8
LAY-1
  6
CONTINUOUS
 62
     3
100
AcDbVertex
100
AcDb2dVertex
 10
571.864465621655
 20
31.53365406889674
 30
0.0
  0
VERTEX
  5
6F6
330
5D8
100
AcDbEntity
  8
LAY-1
  6
CONTINUOUS
 62
     3
100
AcDbVertex
100
AcDb2dVertex
 10
572.0031149870443
 20
31.6507526530412
 30
0.0
  0
VERTEX
  5
6F7
330
5D8
100
AcDbEntity
  8
LAY-1
  6
CONTINUOUS
 62
     3
100
AcDbVertex
100
AcDb2dVertex
 10
572.1384862397418
 20
31.76975355069158
 30
0.0
  0
VERTEX
  5
6F8
330
5D8
100
AcDbEntity
  8
LAY-1
  6
CONTINUOUS
 62
     3
100
AcDbVertex
100
AcDb2dVertex
 10
572.270527191553
 20
31.89061088473665
 30
0.0
  0
VERTEX
  5
6F9
330
5D8
100
AcDbEntity
  8
LAY-1
  6
CONTINUOUS
 62
     3
100
AcDbVertex
100
AcDb2dVertex
 10
572.3991869381772
 20
32.01327806237327
 30
0.0
  0
VERTEX
  5
6FA
330
5D8
100
AcDbEntity
  8
LAY-1
  6
CONTINUOUS
 62
     3
100
AcDbVertex
100
AcDb2dVertex
 10
572.524415878833
 20
32.13770779306969
 30
0.0
  0
VERTEX
  5
6FB
330
5D8
100
AcDbEntity
  8
LAY-1
  6
CONTINUOUS
 62
     3
100
AcDbVertex
100
AcDb2dVertex
 10
572.64616573538
 20
32.26385210679592
 30
0.0
  0
VERTEX
  5
6FC
330
5D8
100
AcDbEntity
  8
LAY-1
  6
CONTINUOUS
 62
     3
100
AcDbVertex
100
AcDb2dVertex
 10
572.7643895709307
 20
32.39166237251777
 30
0.0
  0
VERTEX
  5
6FD
330
5D8
100
AcDbEntity
  8
LAY-1
  6
CONTINUOUS
 62
     3
100
AcDbVertex
100
AcDb2dVertex
 10
572.8790418079464
 20
32.52108931694482
 30
0.0
  0
VERTEX
  5
6FE
330
5D8
100
AcDbEntity
  8
LAY-1
  6
CONTINUOUS
 62
     3
100
AcDbVertex
100
AcDb2dVertex
 10
572.9900782458067
 20
32.65208304352626
 30
0.0
  0
VERTEX
  5
6FF
330
5D8
100
AcDbEntity
  8
LAY-1
  6
CONTINUOUS
 62
     3
100
AcDbVertex
100
AcDb2dVertex
 10
573.0974560778513
 20
32.78459305168695
 30
0.0
  0
VERTEX
  5
700
330
5D8
100
AcDbEntity
  8
LAY-1
  6
CONTINUOUS
 62
     3
100
AcDbVertex
100
AcDb2dVertex
 10
573.2011339078821
 20
32.91856825629623
 30
0.0
  0
VERTEX
  5
701
330
5D8
100
AcDbEntity
  8
LAY-1
  6
CONTINUOUS
 62
     3
100
AcDbVertex
100
AcDb2dVertex
 10
573.3010717661219
 20
33.0539570073625
 30
0.0
  0
VERTEX
  5
702
330
5D8
100
AcDbEntity
  8
LAY-1
  6
CONTINUOUS
 62
     3
100
AcDbVertex
100
AcDb2dVertex
 10
573.397231124624
 20
33.19070710994481
 30
0.0
  0
VERTEX
  5
703
330
5D8
100
AcDbEntity
  8
LAY-1
  6
CONTINUOUS
 62
     3
100
AcDbVertex
100
AcDb2dVertex
 10
573.4895749121252
 20
33.32876584427567
 30
0.0
  0
VERTEX
  5
704
330
5D8
100
AcDbEntity
  8
LAY-1
  6
CONTINUOUS
 62
     3
100
AcDbVertex
100
AcDb2dVertex
 10
573.5780675283376
 20
33.46807998608472
 30
0.0
  0
VERTEX
  5
705
330
5D8
100
AcDbEntity
  8
LAY-1
  6
CONTINUOUS
 62
     3
100
AcDbVertex
100
AcDb2dVertex
 10
573.6626748576731
 20
33.60859582711845
 30
0.0
  0
VERTEX
  5
706
330
5D8
100
AcDbEntity
  8
LAY-1
  6
CONTINUOUS
 62
     3
100
AcDbVertex
100
AcDb2dVertex
 10
573.7433642823955
 20
33.75025919584522
 30
0.0
  0
VERTEX
  5
707
330
5D8
100
AcDbEntity
  8
LAY-1
  6
CONTINUOUS
 62
     3
100
AcDbVertex
100
AcDb2dVertex
 10
573.8201046951958
 20
33.89301547833981
 30
0.0
  0
VERTEX
  5
708
330
5D8
100
AcDbEntity
  8
LAY-1
  6
CONTINUOUS
 62
     3
100
AcDbVertex
100
AcDb2dVertex
 10
573.8928665111839
 20
34.03680963933778
 30
0.0
  0
VERTEX
  5
709
330
5D8
100
AcDbEntity
  8
LAY-1
  6
CONTINUOUS
 62
     3
100
AcDbVertex
100
AcDb2dVertex
 10
573.9616216792949
 20
34.18158624345273
 30
0.0
  0
VERTEX
  5
70A
330
5D8
100
AcDbEntity
  8
LAY-1
  6
CONTINUOUS
 62
     3
100
AcDbVertex
100
AcDb2dVertex
 10
574.0263436931024
 20
34.327289476548
 30
0.0
  0
VERTEX
  5
70B
330
5D8
100
AcDbEntity
  8
LAY-1
  6
CONTINUOUS
 62
     3
100
AcDbVertex
100
AcDb2dVertex
 10
574.0870076010381
 20
34.47386316725346
 30
0.0
  0
VERTEX
  5
70C
330
5D8
100
AcDbEntity
  8
LAY-1
  6
CONTINUOUS
 62
     3
100
AcDbVertex
100
AcDb2dVertex
 10
574.1435900160108
 20
34.62125080862131
 30
0.0
  0
VERTEX
  5
70D
330
5D8
100
AcDbEntity
  8
LAY-1
  6
CONTINUOUS
 62
     3
100
AcDbVertex
100
AcDb2dVertex
 10
574.1960691244223
 20
34.76939557991011
 30
0.0
  0
VERTEX
  5
70E
330
5D8
100
AcDbEntity
  8
LAY-1
  6
CONTINUOUS
 62
     3
100
AcDbVertex
100
AcDb2dVertex
 10
574.2444246945773
 20
34.9182403684905
 30
0.0
  0
VERTEX
  5
70F
330
5D8
100
AcDbEntity
  8
LAY-1
  6
CONTINUOUS
 62
     3
100
AcDbVertex
100
AcDb2dVertex
 10
574.2886380844832
 20
35.06772779186304
 30
0.0
  0
VERTEX
  5
710
330
5D8
100
AcDbEntity
  8
LAY-1
  6
CONTINUOUS
 62
     3
100
AcDbVertex
100
AcDb2dVertex
 10
574.3286922490366
 20
35.21780021978037
 30
0.0
  0
VERTEX
  5
711
330
5D8
100
AcDbEntity
  8
LAY-1
  6
CONTINUOUS
 62
     3
100
AcDbVertex
100
AcDb2dVertex
 10
574.3645717465943
 20
35.36839979646481
 30
0.0
  0
VERTEX
  5
712
330
5D8
100
AcDbEntity
  8
LAY-1
  6
CONTINUOUS
 62
     3
100
AcDbVertex
100
AcDb2dVertex
 10
574.3962627449273
 20
35.51946846291293
 30
0.0
  0
VERTEX
  5
713
330
5D8
100
AcDbEntity
  8
LAY-1
  6
CONTINUOUS
 62
     3
100
AcDbVertex
100
AcDb2dVertex
 10
574.423753026552
 20
35.67094797927768
 30
0.0
  0
VERTEX
  5
714
330
5D8
100
AcDbEntity
  8
LAY-1
  6
CONTINUOUS
 62
     3
100
AcDbVertex
100
AcDb2dVertex
 10
574.4470319934421
 20
35.82277994732243
 30
0.0
  0
VERTEX
  5
715
330
5D8
100
AcDbEntity
  8
LAY-1
  6
CONTINUOUS
 62
     3
100
AcDbVertex
100
AcDb2dVertex
 10
574.4660906711125
 20
35.97490583293285
 30
0.0
  0
VERTEX
  5
716
330
5D8
100
AcDbEntity
  8
LAY-1
  6
CONTINUOUS
 62
     3
100
AcDbVertex
100
AcDb2dVertex
 10
574.4809217120802
 20
36.12726698868443
 30
0.0
  0
VERTEX
  5
717
330
5D8
100
AcDbEntity
  8
LAY-1
  6
CONTINUOUS
 62
     3
100
AcDbVertex
100
AcDb2dVertex
 10
574.4915193986964
 20
36.27980467645114
 30
0.0
  0
VERTEX
  5
718
330
5D8
100
AcDbEntity
  8
LAY-1
  6
CONTINUOUS
 62
     3
100
AcDbVertex
100
AcDb2dVertex
 10
574.4978796453513
 20
36.43246009005082
 30
0.0
  0
VERTEX
  5
719
330
5D8
100
AcDbEntity
  8
LAY-1
  6
CONTINUOUS
 62
     3
100
AcDbVertex
100
AcDb2dVertex
 10
574.5000000000488
 20
36.58517437791528
 30
0.0
  0
SEQEND
  5
71A
330
5D8
100
AcDbEntity
  8
LAY-1
  6
CONTINUOUS
 62
     3
  0
ELLIPSE
  5
71B
330
1F
100
AcDbEntity
  8
LAY-1
  6
CONTINUOUS
 62
     3
100
AcDbEllipse
 10
596.0
 20
79.132711358312
 30
0.0
 11
80.0
 21
-1.959434878635765E-14
 31
0.0
210
0.0
220
0.0
230
1.0
 40
0.6427876096865999
 41
1.703245637548249
 42
4.111929882118183
  0
ELLIPSE
  5
71C
330
1F
100
AcDbEntity
  8
LAY-1
  6
CONTINUOUS
 62
     3
100
AcDbEllipse
 10
596.0
 20
79.132711358312
 30
0.0
 11
80.0
 21
-1.959434878635765E-14
 31
0.0
210
0.0
220
0.0
230
1.0
 40
0.6427876096865999
 41
-0.9703372285283881
 42
1.438347016041542
  0
ELLIPSE
  5
71D
330
1F
100
AcDbEntity
  8
LAY-1
  6
CONTINUOUS
 62
     3
100
AcDbEllipse
 10
596.0
 20
79.132711358312
 30
0.0
 11
80.0
 21
-1.959434878635765E-14
 31
0.0
210
0.0
220
0.0
230
1.0
 40
0.6427876096865999
 41
4.395212818315184
 42
5.029565142454195
  0
ELLIPSE
  5
71E
330
1F
100
AcDbEntity
  8
LAY-1
  6
CONTINUOUS
 62
     3
100
AcDbEllipse
 10
596.0
 20
66.276959164583
 30
0.0
 11
19.0
 21
0.0
 31
0.0
210
0.0
220
0.0
230
1.0
 40
0.6427876096865788
 41
0.0
 42
3.141592653589793
  0
LINE
  5
71F
330
1F
100
AcDbEntity
  8
LAY-1
  6
CONTINUOUS
 62
     3
100
AcDbLine
 10
577.0
 20
66.276959164583
 30
0.0
 11
577.0
 21
63.97882583522602
 31
0.0
  0
LINE
  5
720
330
1F
100
AcDbEntity
  8
LAY-1
  6
CONTINUOUS
 62
     3
100
AcDbLine
 10
615.0
 20
66.276959164583
 30
0.0
 11
615.0
 21
63.97882583522602
 31
0.0
  0
ELLIPSE
  5
721
330
1F
100
AcDbEntity
  8
LAY-1
  6
CONTINUOUS
 62
     3
100
AcDbEllipse
 10
596.0
 20
63.978825835226
 30
0.0
 11
-8.331000000000017
 21
1.020253248369662E-15
 31
0.0
210
0.0
220
0.0
230
1.0
 40
0.6427876096865921
 41
3.141592653589793
 42
6.283185307179586
  0
LINE
  5
722
330
1F
100
AcDbEntity
  8
LAY-1
  6
CONTINUOUS
 62
     3
100
AcDbLine
 10
587.492
 20
59.650674731605
 30
0.0
 11
587.669
 21
63.978825835226
 31
0.0
  0
LINE
  5
723
330
1F
100
AcDbEntity
  8
LAY-1
  6
CONTINUOUS
 62
     3
100
AcDbLine
 10
604.508
 20
59.650674731605
 30
0.0
 11
604.331
 21
63.978825835226
 31
0.0
  0
LINE
  5
724
330
1F
100
AcDbEntity
  8
LAY-1
  6
CONTINUOUS
 62
     3
100
AcDbLine
 10
588.348
 20
53.325187640381
 30
0.0
 11
588.348
 21
52.187361846691
 31
0.0
  0
LINE
  5
725
330
1F
100
AcDbEntity
  8
LAY-1
  6
CONTINUOUS
 62
     3
100
AcDbLine
 10
603.6520000000002
 20
53.32518764038099
 30
0.0
 11
603.6520000000002
 21
52.18736184669098
 31
0.0
  0
LINE
  5
726
330
1F
100
AcDbEntity
  8
LAY-1
  6
CONTINUOUS
 62
     3
100
AcDbLine
 10
588.348
 20
53.325187640381
 30
0.0
 11
595.115
 21
57.641595578775
 31
0.0
  0
LINE
  5
727
330
1F
100
AcDbEntity
  8
LAY-1
  6
CONTINUOUS
 62
     3
100
AcDbLine
 10
596.885
 20
57.641595578775
 30
0.0
 11
603.652
 21
53.325187640381
 31
0.0
  0
LINE
  5
728
330
1F
100
AcDbEntity
  8
LAY-1
  6
CONTINUOUS
 62
     3
100
AcDbLine
 10
603.652
 20
52.187361846691
 30
0.0
 11
596.885
 21
47.870953908296
 31
0.0
  0
LINE
  5
729
330
1F
100
AcDbEntity
  8
LAY-1
  6
CONTINUOUS
 62
     3
100
AcDbLine
 10
588.348
 20
52.187361846691
 30
0.0
 11
595.1150000000001
 21
47.87095390829593
 31
0.0
  0
ARC
  5
72A
330
1F
100
AcDbEntity
  8
LAY-1
  6
CONTINUOUS
 62
     3
100
AcDbCircle
 10
596.0
 20
59.71631383574059
 30
0.0
 40
11.87837433366663
100
AcDbArc
 50
265.7272103600985
 51
274.2727896399015
  0
ARC
  5
72B
330
1F
100
AcDbEntity
  8
LAY-1
  6
CONTINUOUS
 62
     3
100
AcDbCircle
 10
596.0
 20
45.7962356516986
 30
0.0
 40
11.87837433329945
100
AcDbArc
 50
85.72721035996618
 51
94.27278964003386
  0
LINE
  5
72C
330
1F
100
AcDbEntity
  8
LAY-1
  6
CONTINUOUS
 62
     3
100
AcDbLine
 10
588.348
 20
60.18680382264
 30
0.0
 11
595.115
 21
64.503211761034
 31
0.0
  0
LINE
  5
72D
330
1F
100
AcDbEntity
  8
LAY-1
  6
CONTINUOUS
 62
     3
100
AcDbLine
 10
603.6520000000002
 20
60.18680382264
 30
0.0
 11
596.8850000000001
 21
64.50321176103398
 31
0.0
  0
LINE
  5
72E
330
1F
100
AcDbEntity
  8
LAY-1
  6
CONTINUOUS
 62
     3
100
AcDbLine
 10
603.652
 20
53.325187640381
 30
0.0
 11
603.652
 21
60.22006933894202
 31
0.0
  0
LINE
  5
72F
330
1F
100
AcDbEntity
  8
LAY-1
  6
CONTINUOUS
 62
     3
100
AcDbLine
 10
588.348
 20
53.325187640381
 30
0.0
 11
588.348
 21
60.18680382264
 31
0.0
  0
ARC
  5
730
330
1F
100
AcDbEntity
  8
LAY-1
  6
CONTINUOUS
 62
     3
100
AcDbCircle
 10
596.0
 20
52.6578518339576
 30
0.0
 40
11.87837433329945
100
AcDbArc
 50
85.72721035996618
 51
94.27278964003386
  0
ELLIPSE
  5
731
330
1F
100
AcDbEntity
  8
LAY-1
  6
CONTINUOUS
 62
     3
100
AcDbEllipse
 10
596.0
 20
59.650674731605
 30
0.0
 11
8.508000000000038
 21
0.0
 31
0.0
210
0.0
220
0.0
230
1.0
 40
0.6427552227726822
 41
5.830758353976035
 42
9.877204913972928
  0
ELLIPSE
  5
732
330
1F
100
AcDbEntity
  8
LAY-1
  6
CONTINUOUS
 62
     3
100
AcDbEllipse
 10
596.0
 20
63.978825835226
 30
0.0
 11
19.0
 21
0.0
 31
0.0
210
0.0
220
0.0
230
1.0
 40
0.6427876096865788
 41
5.126893918849202
 42
10.58106934909977
  0
LINE
  5
733
330
1F
100
AcDbEntity
  8
LAY-1
  6
CONTINUOUS
 62
     3
100
AcDbLine
 10
595.1150000000001
 20
64.50321176103364
 30
0.0
 11
595.1150000000001
 21
57.641595578775
 31
0.0
  0
LINE
  5
734
330
1F
100
AcDbEntity
  8
LAY-1
  6
CONTINUOUS
 62
     3
100
AcDbLine
 10
596.885
 20
64.50321176103364
 30
0.0
 11
596.885
 21
57.641595578775
 31
0.0
  0
LINE
  5
735
330
1F
100
AcDbEntity
  8
LAY-1
  6
CONTINUOUS
 62
     3
100
AcDbLine
 10
355.7868843247089
 20
108.4218873199692
 30
0.0
 11
347.3603954504001
 21
101.3512236134173
 31
0.0
  0
LINE
  5
736
330
1F
100
AcDbEntity
  8
LAY-1
  6
CONTINUOUS
 62
     3
100
AcDbLine
 10
355.7868843247089
 20
108.4218873199692
 30
0.0
 11
364.2133731990176
 21
115.4925510265211
 31
0.0
  0
LINE
  5
737
330
1F
100
AcDbEntity
  8
LAY-1
  6
CONTINUOUS
 62
     3
100
AcDbLine
 10
364.2133731990176
 20
115.4925510265211
 30
0.0
 11
358.4282847118388
 21
122.3869510145918
 31
0.0
  0
LINE
  5
738
330
1F
100
AcDbEntity
  8
LAY-1
  6
CONTINUOUS
 62
     3
100
AcDbLine
 10
341.5753069632213
 20
108.245623601488
 30
0.0
 11
358.4282847118388
 21
122.3869510145918
 31
0.0
  0
ARC
  5
739
330
1F
100
AcDbEntity
  8
LAY-1
  6
CONTINUOUS
 62
     3
100
AcDbCircle
 10
341.3623482090275
 20
117.0558990096051
 30
0.0
 40
15.88594976730587
100
AcDbArc
 50
289.7438419995312
 51
330.256158000469
  0
ARC
  5
73A
330
1F
100
AcDbEntity
  8
LAY-1
  6
CONTINUOUS
 62
     3
100
AcDbCircle
 10
349.7888370833363
 20
124.1265627161571
 30
0.0
 40
15.88594976730587
100
AcDbArc
 50
289.7438419995312
 51
330.256158000469
  0
LINE
  5
73B
330
1F
100
AcDbEntity
  8
LAY-1
  6
CONTINUOUS
 62
     3
100
AcDbLine
 10
347.3603954504001
 20
101.3512236134173
 30
0.0
 11
341.575306963222
 21
108.245623601487
 31
0.0
  0
LINE
  5
73C
330
1F
100
AcDbEntity
  8
LAY-1
  6
CONTINUOUS
 62
     3
100
AcDbLine
 10
355.1553581146663
 20
109.1745109496048
 30
0.0
 11
350.0017958375301
 21
115.3162873080399
 31
0.0
  0
LINE
  5
73D
330
1F
100
AcDbEntity
  8
LAY-1
  6
EXLTYPE1
 62
     1
100
AcDbLine
 10
325.8972604742823
 20
144.0429539249956
 30
0.0
 11
358.7994169028462
 21
104.8316907971578
 31
0.0
  0
LINE
  5
73E
330
1F
100
AcDbEntity
  8
LAY-1
  6
CONTINUOUS
 62
     3
100
AcDbLine
 10
269.5430710627242
 20
36.05473542051636
 30
0.0
 11
277.9695599370331
 21
43.12539912706825
 31
0.0
  0
LINE
  5
73F
330
1F
100
AcDbEntity
  8
LAY-1
  6
CONTINUOUS
 62
     3
100
AcDbLine
 10
269.5430710627242
 20
36.05473542051636
 30
0.0
 11
261.1165821884154
 21
28.98407171396452
 31
0.0
  0
LINE
  5
740
330
1F
100
AcDbEntity
  8
LAY-1
  6
CONTINUOUS
 62
     3
100
AcDbLine
 10
261.1165821884154
 20
28.98407171396452
 30
0.0
 11
255.3314937012367
 21
35.87847170203528
 31
0.0
  0
LINE
  5
741
330
1F
100
AcDbEntity
  8
LAY-1
  6
CONTINUOUS
 62
     3
100
AcDbLine
 10
272.1844714498543
 20
50.01979911513902
 30
0.0
 11
255.3314937012367
 21
35.87847170203528
 31
0.0
  0
ARC
  5
742
330
1F
100
AcDbEntity
  8
LAY-1
  6
CONTINUOUS
 62
     3
100
AcDbCircle
 10
263.5450238213517
 20
51.75941081670432
 30
0.0
 40
15.88594976730587
100
AcDbArc
 50
289.7438419995306
 51
330.2561580004684
  0
ARC
  5
743
330
1F
100
AcDbEntity
  8
LAY-1
  6
CONTINUOUS
 62
     3
100
AcDbCircle
 10
255.1185349470429
 20
44.68874711015243
 30
0.0
 40
15.88594976730587
100
AcDbArc
 50
289.7438419995306
 51
330.2561580004682
  0
LINE
  5
744
330
1F
100
AcDbEntity
  8
LAY-1
  6
CONTINUOUS
 62
     3
100
AcDbLine
 10
277.9695599370331
 20
43.12539912706825
 30
0.0
 11
272.1844714498551
 21
50.01979911513812
 31
0.0
  0
LINE
  5
745
330
1F
100
AcDbEntity
  8
LAY-1
  6
CONTINUOUS
 62
     3
100
AcDbLine
 10
268.9115448526816
 20
36.80735905015202
 30
0.0
 11
263.7579825755455
 21
42.94913540858712
 31
0.0
  0
LINE
  5
746
330
1F
100
AcDbEntity
  8
LAY-1
  6
EXLTYPE1
 62
     1
100
AcDbLine
 10
239.6534472123074
 20
71.67580202554973
 30
0.0
 11
272.5556036408713
 21
32.46453889771183
 31
0.0
  0
LINE
  5
747
330
1F
100
AcDbEntity
  8
LAY-1
  6
EXLTYPE3
 62
     1
100
AcDbLine
 10
315.6775102718589
 20
68.64811484743456
 30
0.0
 11
187.0000000000018
 21
222.0
 31
0.0
  0
LINE
  5
748
330
1F
100
AcDbEntity
  8
LAY-1
  6
EXLTYPE1
 62
     1
100
AcDbLine
 10
291.5590003441605
 20
66.2769591645827
 30
0.0
 11
305.2662686399634
 21
49.94127292840687
 31
0.0
  0
ARC
  5
749
330
1F
100
AcDbEntity
  8
LAY-1
  6
CONTINUOUS
 62
     3
100
AcDbCircle
 10
135.6484124116296
 20
60.11883846499107
 30
0.0
 40
206.0
100
AcDbArc
 50
24.74247670954409
 51
57.1041204493175
  0
ELLIPSE
  5
74A
330
1F
100
AcDbEntity
  8
LAY-1
  6
CONTINUOUS
 62
     1
100
AcDbEllipse
 10
596.0
 20
59.650674731605
 30
0.0
 11
7.652000000000044
 21
0.0
 31
0.0
210
0.0
220
0.0
230
1.0
 40
0.6384371190848114
 41
0.1168176500489788
 42
1.454880882637176
  0
ELLIPSE
  5
74B
330
1F
100
AcDbEntity
  8
LAY-1
  6
CONTINUOUS
 62
     1
100
AcDbEllipse
 10
596.0
 20
59.650674731605
 30
0.0
 11
7.652000000000044
 21
0.0
 31
0.0
210
0.0
220
0.0
230
1.0
 40
0.6384371190848114
 41
1.686711770952603
 42
3.024775003540831
  0
LINE
  5
74C
330
1F
100
AcDbEntity
  8
LAY-1
  6
CONTINUOUS
 62
     1
100
AcDbLine
 10
596.885
 20
57.641595578775
 30
0.0
 11
603.652
 21
60.18680382264
 31
0.0
  0
LINE
  5
74D
330
1F
100
AcDbEntity
  8
LAY-1
  6
CONTINUOUS
 62
     1
100
AcDbLine
 10
596.88500000095
 20
64.503211760963
 30
0.0
 11
603.652
 21
53.325187640381
 31
0.0
  0
LINE
  5
74E
330
1F
100
AcDbEntity
  8
LAY-1
  6
CONTINUOUS
 62
     1
100
AcDbLine
 10
595.11499999905
 20
64.503211760963
 30
0.0
 11
588.348
 21
53.325187640381
 31
0.0
  0
LINE
  5
74F
330
1F
100
AcDbEntity
  8
LAY-1
  6
CONTINUOUS
 62
     1
100
AcDbLine
 10
588.348
 20
60.18680382264
 30
0.0
 11
595.115
 21
57.641595578775
 31
0.0
  0
TEXT
  5
751
330
1F
100
AcDbEntity
  8
LAY-1
  6
CONTINUOUS
 62
     3
100
AcDbText
 10
526.0
 20
491.125
 30
0.0
 40
5.466484268125855
  1
ＳＴＡＩＮＬＥＳＳ　ＳＴＥＥＬ
  7
EXCADTTF1
 72
     5
 11
646.0
 21
491.125
 31
0.0
100
AcDbText
  0
TEXT
  5
752
330
1F
100
AcDbEntity
  8
LAY-1
  6
CONTINUOUS
 62
     3
100
AcDbText
 10
526.0
 20
475.125
 30
0.0
 40
5.466484268125855
  1
Ｙ　ＴＹＰＥ　ＳＴＲＡＩＮＥＲ
  7
EXCADTTF1
 72
     5
 11
646.0
 21
475.125
 31
0.0
100
AcDbText
  0
TEXT
  5
753
330
1F
100
AcDbEntity
  8
LAY-1
  6
CONTINUOUS
 62
     3
100
AcDbText
 10
526.0
 20
459.125
 30
0.0
 40
5.466484268125855
  1
１０ＦＹＬ－１３Ａ
  7
EXCADTTF1
 72
     5
 11
598.0
 21
459.125
 31
0.0
100
AcDbText
  0
TEXT
  5
754
330
1F
100
AcDbEntity
  8
LAY-1
  6
CONTINUOUS
 62
     3
100
AcDbText
 10
526.0
 20
443.125
 30
0.0
 40
5.466484268125855
  1
１０Ｋ－８０Ａ
  7
EXCADTTF1
 72
     5
 11
582.0
 21
443.125
 31
0.0
100
AcDbText
  0
ENDSEC
  0
SECTION
  2
OBJECTS
  0
DICTIONARY
  5
C
330
0
100
AcDbDictionary
  3
ACAD_GROUP
350
D
  3
ACAD_LAYOUT
350
1A
  3
ACAD_MATERIAL
350
43
  3
ACAD_MLEADERSTYLE
350
777
  3
ACAD_MLINESTYLE
350
17
  3
ACAD_PLOTSETTINGS
350
19
  3
ACAD_SCALELIST
350
47
  3
ACAD_VISUALSTYLE
350
2A
  3
ACDBHEADERROUNDTRIPXREC
350
755
  3
ACDBVARIABLEDICTIONARY
350
775
  0
DICTIONARY
  5
D
102
{ACAD_REACTORS
330
C
102
}
330
C
100
AcDbDictionary
  0
DICTIONARY
  5
1A
102
{ACAD_REACTORS
330
C
102
}
330
C
100
AcDbDictionary
  0
DICTIONARY
  5
43
102
{ACAD_REACTORS
330
C
102
}
330
C
100
AcDbDictionary
  3
BYBLOCK
350
45
  3
BYLAYER
350
44
  3
GLOBAL
350
46
  0
DICTIONARY
  5
777
102
{ACAD_REACTORS
330
C
102
}
330
C
100
AcDbDictionary
  0
DICTIONARY
  5
17
102
{ACAD_REACTORS
330
C
102
}
330
C
100
AcDbDictionary
  3
STANDARD
350
18
  0
DICTIONARY
  5
19
102
{ACAD_REACTORS
330
C
102
}
330
C
100
AcDbDictionary
  0
DICTIONARY
  5
47
102
{ACAD_REACTORS
330
C
102
}
330
C
100
AcDbDictionary
  3
A0
350
48
  3
A1
350
49
  3
A2
350
4A
  3
A3
350
4B
  3
A4
350
4C
  3
A5
350
4D
  3
A6
350
4E
  3
A7
350
4F
  3
A8
350
50
  3
A9
350
51
  3
B0
350
52
  3
B1
350
53
  3
B2
350
54
  3
B3
350
55
  3
B4
350
56
  3
B5
350
57
  3
B6
350
58
  3
B7
350
59
  3
B8
350
5A
  3
B9
350
5B
  3
C0
350
5C
  3
C1
350
5D
  3
C2
350
5E
  3
C3
350
5F
  3
C4
350
60
  3
C5
350
61
  3
C6
350
62
  3
C7
350
63
  3
C8
350
64
  3
C9
350
65
  3
D0
350
66
  3
D1
350
67
  3
D2
350
68
  0
DICTIONARY
  5
2A
102
{ACAD_REACTORS
330
C
102
}
330
C
100
AcDbDictionary
  3
2DWIREFRAME
350
2F
  3
BASIC
350
32
  3
BRIGHTEN
350
36
  3
COLORCHANGE
350
3A
  3
CONCEPTUAL
350
34
  3
DIM
350
35
  3
EDGECOLOROFF
350
3D
  3
FACEPATTERN
350
39
  3
FLAT
350
2B
  3
FLATWITHEDGES
350
2C
  3
GOURAUD
350
2D
  3
GOURAUDWITHEDGES
350
2E
  3
HIDDEN
350
31
  3
JITTEROFF
350
3B
  3
LINEPATTERN
350
38
  3
OVERHANGOFF
350
3C
  3
REALISTIC
350
33
  3
SHADED
350
42
  3
SHADED_WITH_EDGES
350
41
  3
SHADES_OF_GRAY
350
3E
  3
SKETCHY
350
3F
  3
THICKEN
350
37
  3
WIREFRAME
350
30
  3
X-RAY
350
40
  0
DICTIONARY
  5
755
102
{ACAD_REACTORS
330
C
102
}
330
C
100
AcDbDictionary
  3
CEPSNTYPE
350
75E
  3
DIMSTYLEDATA
350
774
  3
FINGERPRINTGUID
350
75F
  3
HYPERLINKBASE
350
758
  3
INSUNITS
350
75D
  3
LAYOUTDICT
350
75A
  3
LWETCUNION
350
75C
  3
PLOTSETDICT
350
75B
  3
PSVPSCALE
350
761
  3
PUCSBASE
350
764
  3
PUCSORGBACK
350
76A
  3
PUCSORGBOTTOM
350
766
  3
PUCSORGFRONT
350
769
  3
PUCSORGLEFT
350
767
  3
PUCSORGRIGHT
350
768
  3
PUCSORGTOP
350
765
  3
PUCSORTHOREF
350
762
  3
PUCSORTHOVIEW
350
763
  3
STYLESHEET
350
759
  3
TSTACKALIGN
350
756
  3
TSTACKSIZE
350
757
  3
UCSBASE
350
76D
  3
UCSORGBACK
350
773
  3
UCSORGBOTTOM
350
76F
  3
UCSORGFRONT
350
772
  3
UCSORGLEFT
350
770
  3
UCSORGRIGHT
350
771
  3
UCSORGTOP
350
76E
  3
UCSORTHOREF
350
76B
  3
UCSORTHOVIEW
350
76C
  3
VERSIONGUID
350
760
  0
DICTIONARY
  5
775
102
{ACAD_REACTORS
330
C
102
}
330
C
100
AcDbDictionary
  3
CANNOSCALE
350
77E
  3
DIMASSOC
350
77C
  3
HIDETEXT
350
77D
  3
MSLTSCALE
350
77F
  3
PSOLHEIGHT
350
779
  3
PSOLWIDTH
350
778
  0
MATERIAL
  5
45
102
{ACAD_REACTORS
330
43
102
}
102
{ACAD_XDICTIONARY
360
782
102
}
330
43
100
AcDbMaterial
  1
BYBLOCK
  0
MATERIAL
  5
44
102
{ACAD_REACTORS
330
43
102
}
102
{ACAD_XDICTIONARY
360
780
102
}
330
43
100
AcDbMaterial
  1
BYLAYER
  0
MATERIAL
  5
46
102
{ACAD_REACTORS
330
43
102
}
102
{ACAD_XDICTIONARY
360
784
102
}
330
43
100
AcDbMaterial
  1
GLOBAL
  0
MLINESTYLE
  5
18
102
{ACAD_REACTORS
330
17
102
}
330
17
100
AcDbMlineStyle
  2
Standard
 70
     0
  3

 62
   256
 51
90.0
 52
90.0
 71
     2
 49
0.5
 62
   256
  6
BYLAYER
 49
-0.5
 62
   256
  6
BYLAYER
  0
ACAD_PROXY_OBJECT
  5
48
102
{ACAD_REACTORS
330
47
102
}
330
47
100
AcDbProxyObject
 90
      499
 91
      503
 93
       41
310
903313A31580
  0
ACAD_PROXY_OBJECT
  5
49
102
{ACAD_REACTORS
330
47
102
}
330
47
100
AcDbProxyObject
 90
      499
 91
      503
 93
      105
310
903313A324000000000000004000
  0
ACAD_PROXY_OBJECT
  5
4A
102
{ACAD_REACTORS
330
47
102
}
330
47
100
AcDbProxyObject
 90
      499
 91
      503
 93
      105
310
903313A344000000000000104000
  0
ACAD_PROXY_OBJECT
  5
4B
102
{ACAD_REACTORS
330
47
102
}
330
47
100
AcDbProxyObject
 90
      499
 91
      503
 93
      105
310
903313A354000000000000144000
  0
ACAD_PROXY_OBJECT
  5
4C
102
{ACAD_REACTORS
330
47
102
}
330
47
100
AcDbProxyObject
 90
      499
 91
      503
 93
      105
310
903313A384000000000000204000
  0
ACAD_PROXY_OBJECT
  5
4D
102
{ACAD_REACTORS
330
47
102
}
330
47
100
AcDbProxyObject
 90
      499
 91
      503
 93
      113
310
904313A31304000000000000244000
  0
ACAD_PROXY_OBJECT
  5
4E
102
{ACAD_REACTORS
330
47
102
}
330
47
100
AcDbProxyObject
 90
      499
 91
      503
 93
      113
310
904313A31364000000000000304000
  0
ACAD_PROXY_OBJECT
  5
4F
102
{ACAD_REACTORS
330
47
102
}
330
47
100
AcDbProxyObject
 90
      499
 91
      503
 93
      113
310
904313A32304000000000000344000
  0
ACAD_PROXY_OBJECT
  5
50
102
{ACAD_REACTORS
330
47
102
}
330
47
100
AcDbProxyObject
 90
      499
 91
      503
 93
      113
310
904313A333040000000000003E4000
  0
ACAD_PROXY_OBJECT
  5
51
102
{ACAD_REACTORS
330
47
102
}
330
47
100
AcDbProxyObject
 90
      499
 91
      503
 93
      113
310
904313A34304000000000000444000
  0
ACAD_PROXY_OBJECT
  5
52
102
{ACAD_REACTORS
330
47
102
}
330
47
100
AcDbProxyObject
 90
      499
 91
      503
 93
      113
310
904313A35304000000000000494000
  0
ACAD_PROXY_OBJECT
  5
53
102
{ACAD_REACTORS
330
47
102
}
330
47
100
AcDbProxyObject
 90
      499
 91
      503
 93
      121
310
905313A3130304000000000000594000
  0
ACAD_PROXY_OBJECT
  5
54
102
{ACAD_REACTORS
330
47
102
}
330
47
100
AcDbProxyObject
 90
      499
 91
      503
 93
      105
310
903323A310000000000000010100
  0
ACAD_PROXY_OBJECT
  5
55
102
{ACAD_REACTORS
330
47
102
}
330
47
100
AcDbProxyObject
 90
      499
 91
      503
 93
      105
310
903343A310000000000000410100
  0
ACAD_PROXY_OBJECT
  5
56
102
{ACAD_REACTORS
330
47
102
}
330
47
100
AcDbProxyObject
 90
      499
 91
      503
 93
      105
310
903383A310000000000000810100
  0
ACAD_PROXY_OBJECT
  5
57
102
{ACAD_REACTORS
330
47
102
}
330
47
100
AcDbProxyObject
 90
      499
 91
      503
 93
      113
310
90431303A310000000000000910100
  0
ACAD_PROXY_OBJECT
  5
58
102
{ACAD_REACTORS
330
47
102
}
330
47
100
AcDbProxyObject
 90
      499
 91
      503
 93
      121
310
9053130303A310000000000001650100
  0
ACAD_PROXY_OBJECT
  5
59
102
{ACAD_REACTORS
330
47
102
}
330
47
100
AcDbProxyObject
 90
      499
 91
      503
 93
      257
310
90E312F31323822203D2031272D3022000000000000200FC000000000000284000
  0
ACAD_PROXY_OBJECT
  5
5A
102
{ACAD_REACTORS
330
47
102
}
330
47
100
AcDbProxyObject
 90
      499
 91
      503
 93
      249
310
90D312F363422203D2031272D3022000000000000240FC000000000000284000
  0
ACAD_PROXY_OBJECT
  5
5B
102
{ACAD_REACTORS
330
47
102
}
330
47
100
AcDbProxyObject
 90
      499
 91
      503
 93
      249
310
90D312F333222203D2031272D3022000000000000280FC000000000000284000
  0
ACAD_PROXY_OBJECT
  5
5C
102
{ACAD_REACTORS
330
47
102
}
330
47
100
AcDbProxyObject
 90
      499
 91
      503
 93
      249
310
90D312F313622203D2031272D30220000000000002C0FC000000000000284000
  0
ACAD_PROXY_OBJECT
  5
5D
102
{ACAD_REACTORS
330
47
102
}
330
47
100
AcDbProxyObject
 90
      499
 91
      503
 93
      249
310
90D332F333222203D2031272D30220000000000002E0FC000000000000284000
  0
ACAD_PROXY_OBJECT
  5
5E
102
{ACAD_REACTORS
330
47
102
}
330
47
100
AcDbProxyObject
 90
      499
 91
      503
 93
      241
310
90C312F3822203D2031272D3022000000000000300FC000000000000284000
  0
ACAD_PROXY_OBJECT
  5
5F
102
{ACAD_REACTORS
330
47
102
}
330
47
100
AcDbProxyObject
 90
      499
 91
      503
 93
      249
310
90D332F313622203D2031272D3022000000000000320FC000000000000284000
  0
ACAD_PROXY_OBJECT
  5
60
102
{ACAD_REACTORS
330
47
102
}
330
47
100
AcDbProxyObject
 90
      499
 91
      503
 93
      241
310
90C312F3422203D2031272D3022000000000000340FC000000000000284000
  0
ACAD_PROXY_OBJECT
  5
61
102
{ACAD_REACTORS
330
47
102
}
330
47
100
AcDbProxyObject
 90
      499
 91
      503
 93
      241
310
90C332F3822203D2031272D3022000000000000360FC000000000000284000
  0
ACAD_PROXY_OBJECT
  5
62
102
{ACAD_REACTORS
330
47
102
}
330
47
100
AcDbProxyObject
 90
      499
 91
      503
 93
      241
310
90C312F3222203D2031272D3022000000000000380FC000000000000284000
  0
ACAD_PROXY_OBJECT
  5
63
102
{ACAD_REACTORS
330
47
102
}
330
47
100
AcDbProxyObject
 90
      499
 91
      503
 93
      241
310
90C332F3422203D2031272D30220000000000003A0FC000000000000284000
  0
ACAD_PROXY_OBJECT
  5
64
102
{ACAD_REACTORS
330
47
102
}
330
47
100
AcDbProxyObject
 90
      499
 91
      503
 93
      161
310
90A3122203D2031272D30224000000000000284000
  0
ACAD_PROXY_OBJECT
  5
65
102
{ACAD_REACTORS
330
47
102
}
330
47
100
AcDbProxyObject
 90
      499
 91
      503
 93
      257
310
90E312D312F3222203D2031272D30220000000000003E0FC000000000000284000
  0
ACAD_PROXY_OBJECT
  5
66
102
{ACAD_REACTORS
330
47
102
}
330
47
100
AcDbProxyObject
 90
      499
 91
      503
 93
      225
310
90A3322203D2031272D302200000000000002100000000000000284000
  0
ACAD_PROXY_OBJECT
  5
67
102
{ACAD_REACTORS
330
47
102
}
330
47
100
AcDbProxyObject
 90
      499
 91
      503
 93
      225
310
90A3622203D2031272D302200000000000006100000000000000284000
  0
ACAD_PROXY_OBJECT
  5
68
102
{ACAD_REACTORS
330
47
102
}
330
47
100
AcDbProxyObject
 90
      499
 91
      503
 93
      249
310
90D31272D3022203D2031272D30220000000000000A100000000000000284000
  0
ACAD_PROXY_OBJECT
  5
2F
102
{ACAD_REACTORS
330
2A
102
}
330
2A
100
AcDbProxyObject
 90
      499
 91
      501
 93
      436
310
42CC9915DA5C99599C985B595049028333333333333E33F0000000000000F90107901411070040501600405405064090741402480A0340
1001
ACAD
1000
AcDbSavedByObjectVersion
1070
     0
  0
ACAD_PROXY_OBJECT
  5
32
102
{ACAD_REACTORS
330
2A
102
}
330
2A
100
AcDbProxyObject
 90
      499
 91
      501
 93
      388
310
4150985CDA58D07406404333333333333E33F0000000000000F90107A41107004050150841D405064090741402480A0350
1001
ACAD
1000
AcDbSavedByObjectVersion
1070
     0
  0
ACAD_PROXY_OBJECT
  5
36
102
{ACAD_REACTORS
330
2A
102
}
330
2A
100
AcDbProxyObject
 90
      499
 91
      501
 93
      428
310
42109C9A59DA1D195B90C409028333333333333E33F0000000000000F9010790141107004050150841D405064090741402480A029950
1001
ACAD
1000
AcDbSavedByObjectVersion
1070
     0
  0
ACAD_PROXY_OBJECT
  5
3A
102
{ACAD_REACTORS
330
2A
102
}
330
2A
100
AcDbProxyObject
 90
      499
 91
      501
 93
      452
310
42D0DBDB1BDC90DA185B99D95104090240C333333333333E33F0000000000000F90108901411070040501508421405064090741402480A0350
1001
ACAD
1000
AcDbSavedByObjectVersion
1070
     0
  0
ACAD_PROXY_OBJECT
  5
34
102
{ACAD_REACTORS
330
2A
102
}
330
2A
100
AcDbProxyObject
 90
      499
 91
      501
 93
      500
310
4290DBDB98D95C1D1D585B10940D028333333333333E33F0000000000000F90107902409070040501000000000018199010841D405064090740C02480A0340
1001
ACAD
1000
AcDbSavedByObjectVersion
1070
     0
  0
ACAD_PROXY_OBJECT
  5
35
102
{ACAD_REACTORS
330
2A
102
}
330
2A
100
AcDbProxyObject
 90
      499
 91
      501
 93
      412
310
40D11A5B50B409028333333333333E33F0000000000000F9010790141107004050150841D405064090741402480A02677FFFFFD0
1001
ACAD
1000
AcDbSavedByObjectVersion
1070
     0
  0
ACAD_PROXY_OBJECT
  5
3D
102
{ACAD_REACTORS
330
2A
102
}
330
2A
100
AcDbProxyObject
 90
      499
 91
      501
 93
      452
310
43115919D950DBDB1BDC93D999916409028333333333333E33F0000000000000F9010790141107004050150841D405064090741402480A0350
1001
ACAD
1000
AcDbSavedByObjectVersion
1070
     0
  0
ACAD_PROXY_OBJECT
  5
39
102
{ACAD_REACTORS
330
2A
102
}
330
2A
100
AcDbProxyObject
 90
      499
 91
      501
 93
      444
310
42D19858D95C185D1D195C9B90F409028333333333333E33F0000000000000F9010790141107004050150841D405064090741402480A0350
1001
ACAD
1000
AcDbSavedByObjectVersion
1070
     0
  0
ACAD_PROXY_OBJECT
  5
2B
102
{ACAD_REACTORS
330
2A
102
}
330
2A
100
AcDbProxyObject
 90
      499
 91
      501
 93
      380
310
41119B185D240901404333333333333E33F0000000000000F9010740A907004050150841D405064090741402480A1B50
1001
ACAD
1000
AcDbSavedByObjectVersion
1070
     0
  0
ACAD_PROXY_OBJECT
  5
2C
102
{ACAD_REACTORS
330
2A
102
}
330
2A
100
AcDbProxyObject
 90
      499
 91
      501
 93
      468
310
43519B185D15DA5D1A115919D95CD0140901404333333333333E33F0000000000000F90107409019070040501600405405064090741402480A1B50
1001
ACAD
1000
AcDbSavedByObjectVersion
1070
     0
  0
ACAD_PROXY_OBJECT
  5
2D
102
{ACAD_REACTORS
330
2A
102
}
330
2A
100
AcDbProxyObject
 90
      499
 91
      501
 93
      404
310
41D1DBDD5C985D5910240902404333333333333E33F0000000000000F9010740A9070040501641D405064090741402480A1B50
1001
ACAD
1000
AcDbSavedByObjectVersion
1070
     0
  0
ACAD_PROXY_OBJECT
  5
2E
102
{ACAD_REACTORS
330
2A
102
}
330
2A
100
AcDbProxyObject
 90
      499
 91
      501
 93
      492
310
4411DBDD5C985D5915DA5D1A115919D95CD0340902404333333333333E33F0000000000000F90107409019070040501600405405064090741402480A1B50
1001
ACAD
1000
AcDbSavedByObjectVersion
1070
     0
  0
ACAD_PROXY_OBJECT
  5
31
102
{ACAD_REACTORS
330
2A
102
}
330
2A
100
AcDbProxyObject
 90
      499
 91
      501
 93
      476
310
41921A5919195B90640502408333333333333E33F0000000000000F901079024090700405020000000000001110200405405064090740C02480A0340
1001
ACAD
1000
AcDbSavedByObjectVersion
1070
     0
  0
ACAD_PROXY_OBJECT
  5
3B
102
{ACAD_REACTORS
330
2A
102
}
330
2A
100
AcDbProxyObject
 90
      499
 91
      501
 93
      428
310
42529A5D1D195C93D999914409028333333333333E33F0000000000000F9010790141107004050150A41D405064090741402480A0350
1001
ACAD
1000
AcDbSavedByObjectVersion
1070
     0
  0
ACAD_PROXY_OBJECT
  5
38
102
{ACAD_REACTORS
330
2A
102
}
330
2A
100
AcDbProxyObject
 90
      499
 91
      501
 93
      444
310
42D31A5B995C185D1D195C9B90E409028333333333333E33F0000000000000F9010790141107004050750841D405064090741402483A0350
1001
ACAD
1000
AcDbSavedByObjectVersion
1070
     0
  0
ACAD_PROXY_OBJECT
  5
3C
102
{ACAD_REACTORS
330
2A
102
}
330
2A
100
AcDbProxyObject
 90
      499
 91
      501
 93
      444
310
42D3DD995C9A185B99D3D999915409028333333333333E33F0000000000000F9010790141107004050150941D405064090741402480A0350
1001
ACAD
1000
AcDbSavedByObjectVersion
1070
     0
  0
ACAD_PROXY_OBJECT
  5
33
102
{ACAD_REACTORS
330
2A
102
}
330
2A
100
AcDbProxyObject
 90
      499
 91
      501
 93
      428
310
425499585B1A5CDD1A58D08409038333333333333E33F0000000000000F9010740A907004050150800405405064090740C02480A1B40
1001
ACAD
1000
AcDbSavedByObjectVersion
1070
     0
  0
ACAD_PROXY_OBJECT
  5
42
102
{ACAD_REACTORS
330
2A
102
}
330
2A
100
AcDbProxyObject
 90
      499
 91
      501
 93
      420
310
4194DA1859195911B40902404333333333333E33F0000000000000F9010740A41107004050150800405405064090840C02480A0B40
1001
ACAD
1000
AcDbSavedByObjectVersion
1070
     0
  0
ACAD_PROXY_OBJECT
  5
41
102
{ACAD_REACTORS
330
2A
102
}
330
2A
100
AcDbProxyObject
 90
      499
 91
      501
 93
      516
310
4454DA18591959081DDA5D1A08195919D95CD1A40902404333333333333E33F0000000000000F901074090142907004050250800405405064090740C02480A0B40
1001
ACAD
1000
AcDbSavedByObjectVersion
1070
     0
  0
ACAD_PROXY_OBJECT
  5
3E
102
{ACAD_REACTORS
330
2A
102
}
330
2A
100
AcDbProxyObject
 90
      499
 91
      501
 93
      532
310
4394DA1859195CC81BD98811DC985E5174090240C333333333333E33F0000000000000F901079024090741D01000000000000111010841D405064090740C02480A0340
1001
ACAD
1000
AcDbSavedByObjectVersion
1070
     0
  0
ACAD_PROXY_OBJECT
  5
3F
102
{ACAD_REACTORS
330
2A
102
}
330
2A
100
AcDbProxyObject
 90
      499
 91
      501
 93
      476
310
41D4DAD95D18DA1E51840502408333333333333E33F0000000000000F901079024090741D01000000000000111010B41D405064090741802480A0340
1001
ACAD
1000
AcDbSavedByObjectVersion
1070
     0
  0
ACAD_PROXY_OBJECT
  5
37
102
{ACAD_REACTORS
330
2A
102
}
330
2A
100
AcDbProxyObject
 90
      499
 91
      501
 93
      412
310
41D51A1A58DAD95B90D409028333333333333E33F0000000000000F9010790141107004050150C41D405064090741402480A0350
1001
ACAD
1000
AcDbSavedByObjectVersion
1070
     0
  0
ACAD_PROXY_OBJECT
  5
30
102
{ACAD_REACTORS
330
2A
102
}
330
2A
100
AcDbProxyObject
 90
      499
 91
      501
 93
      420
310
4255DA5C99599C985B595059028333333333333E33F0000000000000F90107901411070040501600405405064090740C02480A0340
1001
ACAD
1000
AcDbSavedByObjectVersion
1070
     0
  0
ACAD_PROXY_OBJECT
  5
40
102
{ACAD_REACTORS
330
2A
102
}
330
2A
100
AcDbProxyObject
 90
      499
 91
      501
 93
      404
310
41560B54985E51940902404000000000000E03F0000000000000F9010740501907004050150841D405064090740C02480A1B40
1001
ACAD
1000
AcDbSavedByObjectVersion
1070
     0
  0
XRECORD
  5
75E
102
{ACAD_REACTORS
330
755
102
}
330
755
100
AcDbXrecord
 90
        0
  0
XRECORD
  5
774
102
{ACAD_REACTORS
330
755
102
}
330
755
100
AcDbXrecord
1000
DSTYLE
1002
{
1070
   340
340
11
1002
}
  0
XRECORD
  5
75F
102
{ACAD_REACTORS
330
755
102
}
330
755
100
AcDbXrecord
  1
{8E359A52-7B4A-41F0-8CCA-2D4BC0D43263}
  0
XRECORD
  5
758
102
{ACAD_REACTORS
330
755
102
}
330
755
100
AcDbXrecord
  1

  0
XRECORD
  5
75D
102
{ACAD_REACTORS
330
755
102
}
330
755
100
AcDbXrecord
 90
        4
  0
XRECORD
  5
75A
102
{ACAD_REACTORS
330
755
102
}
330
755
100
AcDbXrecord
340
1A
  0
XRECORD
  5
75C
102
{ACAD_REACTORS
330
755
102
}
330
755
100
AcDbXrecord
 90
    10781
  0
XRECORD
  5
75B
102
{ACAD_REACTORS
330
755
102
}
330
755
100
AcDbXrecord
340
19
  0
XRECORD
  5
761
102
{ACAD_REACTORS
330
755
102
}
330
755
100
AcDbXrecord
 40
0.0
  0
XRECORD
  5
764
102
{ACAD_REACTORS
330
755
102
}
330
755
100
AcDbXrecord
340
0
  0
XRECORD
  5
76A
102
{ACAD_REACTORS
330
755
102
}
330
755
100
AcDbXrecord
 10
0.0
 20
0.0
 30
0.0
  0
XRECORD
  5
766
102
{ACAD_REACTORS
330
755
102
}
330
755
100
AcDbXrecord
 10
0.0
 20
0.0
 30
0.0
  0
XRECORD
  5
769
102
{ACAD_REACTORS
330
755
102
}
330
755
100
AcDbXrecord
 10
0.0
 20
0.0
 30
0.0
  0
XRECORD
  5
767
102
{ACAD_REACTORS
330
755
102
}
330
755
100
AcDbXrecord
 10
0.0
 20
0.0
 30
0.0
  0
XRECORD
  5
768
102
{ACAD_REACTORS
330
755
102
}
330
755
100
AcDbXrecord
 10
0.0
 20
0.0
 30
0.0
  0
XRECORD
  5
765
102
{ACAD_REACTORS
330
755
102
}
330
755
100
AcDbXrecord
 10
0.0
 20
0.0
 30
0.0
  0
XRECORD
  5
762
102
{ACAD_REACTORS
330
755
102
}
330
755
100
AcDbXrecord
340
0
  0
XRECORD
  5
763
102
{ACAD_REACTORS
330
755
102
}
330
755
100
AcDbXrecord
 70
     0
  0
XRECORD
  5
759
102
{ACAD_REACTORS
330
755
102
}
330
755
100
AcDbXrecord
  1

  0
XRECORD
  5
756
102
{ACAD_REACTORS
330
755
102
}
330
755
100
AcDbXrecord
 90
        1
  0
XRECORD
  5
757
102
{ACAD_REACTORS
330
755
102
}
330
755
100
AcDbXrecord
 90
       70
  0
XRECORD
  5
76D
102
{ACAD_REACTORS
330
755
102
}
330
755
100
AcDbXrecord
340
0
  0
XRECORD
  5
773
102
{ACAD_REACTORS
330
755
102
}
330
755
100
AcDbXrecord
 10
0.0
 20
0.0
 30
0.0
  0
XRECORD
  5
76F
102
{ACAD_REACTORS
330
755
102
}
330
755
100
AcDbXrecord
 10
0.0
 20
0.0
 30
0.0
  0
XRECORD
  5
772
102
{ACAD_REACTORS
330
755
102
}
330
755
100
AcDbXrecord
 10
0.0
 20
0.0
 30
0.0
  0
XRECORD
  5
770
102
{ACAD_REACTORS
330
755
102
}
330
755
100
AcDbXrecord
 10
0.0
 20
0.0
 30
0.0
  0
XRECORD
  5
771
102
{ACAD_REACTORS
330
755
102
}
330
755
100
AcDbXrecord
 10
0.0
 20
0.0
 30
0.0
  0
XRECORD
  5
76E
102
{ACAD_REACTORS
330
755
102
}
330
755
100
AcDbXrecord
 10
0.0
 20
0.0
 30
0.0
  0
XRECORD
  5
76B
102
{ACAD_REACTORS
330
755
102
}
330
755
100
AcDbXrecord
340
0
  0
XRECORD
  5
76C
102
{ACAD_REACTORS
330
755
102
}
330
755
100
AcDbXrecord
 70
     0
  0
XRECORD
  5
760
102
{ACAD_REACTORS
330
755
102
}
330
755
100
AcDbXrecord
  1
{FAEB1C32-E019-11D5-929B-00C0DF256EC4}
  0
DICTIONARYVAR
  5
77E
102
{ACAD_REACTORS
330
775
102
}
330
775
100
DictionaryVariables
280
     0
  1
1:1
  0
DICTIONARYVAR
  5
77C
102
{ACAD_REACTORS
330
775
102
}
330
775
100
DictionaryVariables
280
     0
  1
2
  0
DICTIONARYVAR
  5
77D
102
{ACAD_REACTORS
330
775
102
}
330
775
100
DictionaryVariables
280
     0
  1
1
  0
DICTIONARYVAR
  5
77F
102
{ACAD_REACTORS
330
775
102
}
330
775
100
DictionaryVariables
280
     0
  1
1
  0
DICTIONARYVAR
  5
779
102
{ACAD_REACTORS
330
775
102
}
330
775
100
DictionaryVariables
280
     0
  1
80.000000
  0
DICTIONARYVAR
  5
778
102
{ACAD_REACTORS
330
775
102
}
330
775
100
DictionaryVariables
280
     0
  1
5.000000
  0
DICTIONARY
  5
782
330
45
100
AcDbDictionary
280
     1
  3
ACAD_XREC_ROUNDTRIP
360
783
  0
DICTIONARY
  5
780
330
44
100
AcDbDictionary
280
     1
  3
ACAD_XREC_ROUNDTRIP
360
781
  0
DICTIONARY
  5
784
330
46
100
AcDbDictionary
280
     1
  3
ACAD_XREC_ROUNDTRIP
360
785
  0
XRECORD
  5
783
102
{ACAD_REACTORS
330
782
102
}
330
782
100
AcDbXrecord
102
MATERIAL
148
0.0
149
0.0
149
0.0
 93
        0
 94
      127
282
     0
 72
     1
 77
     1
171
     1
175
     1
179
     1
273
     0
  0
XRECORD
  5
781
102
{ACAD_REACTORS
330
780
102
}
330
780
100
AcDbXrecord
102
MATERIAL
148
0.0
149
0.0
149
0.0
 93
        0
 94
      127
282
     0
 72
     1
 77
     1
171
     1
175
     1
179
     1
273
     0
  0
XRECORD
  5
785
102
{ACAD_REACTORS
330
784
102
}
330
784
100
AcDbXrecord
102
MATERIAL
148
0.0
149
0.0
149
0.0
 93
        0
 94
      127
282
     0
 72
     1
 77
     1
171
     1
175
     1
179
     1
273
     0
  0
ENDSEC
  0
EOF
