  0
SECTION
  2
HEADER
  9
$ACADVER
  1
AC1014
  9
$ACADMAINTVER
 70
     9
  9
$DWGCODEPAGE
  3
ANSI_932
  9
$INSBASE
 10
0.0
 20
0.0
 30
0.0
  9
$EXTMIN
 10
68.0
 20
33.0
 30
0.0
  9
$EXTMAX
 10
286.0
 20
222.0
 30
0.0
  9
$LIMMIN
 10
0.0
 20
0.0
  9
$LIMMAX
 10
420.0
 20
297.0
  9
$ORTHOMODE
 70
     0
  9
$REGENMODE
 70
     1
  9
$FILLMODE
 70
     1
  9
$QTEXTMODE
 70
     0
  9
$MIRRTEXT
 70
     1
  9
$DRAGMODE
 70
     2
  9
$LTSCALE
 40
1.0
  9
$OSMODE
 70
    37
  9
$ATTMODE
 70
     1
  9
$TEXTSIZE
 40
2.5
  9
$TRACEWID
 40
1.0
  9
$TEXTSTYLE
  7
STANDARD
  9
$CLAYER
  8
LAY-1
  9
$CELTYPE
  6
BYLAYER
  9
$CECOLOR
 62
   256
  9
$CELTSCALE
 40
1.0
  9
$DELOBJ
 70
     1
  9
$DISPSILH
 70
     0
  9
$DIMSCALE
 40
1.0
  9
$DIMASZ
 40
2.5
  9
$DIMEXO
 40
0.625
  9
$DIMDLI
 40
3.75
  9
$DIMRND
 40
0.0
  9
$DIMDLE
 40
0.0
  9
$DIMEXE
 40
1.25
  9
$DIMTP
 40
0.0
  9
$DIMTM
 40
0.0
  9
$DIMTXT
 40
2.5
  9
$DIMCEN
 40
2.5
  9
$DIMTSZ
 40
0.0
  9
$DIMTOL
 70
     0
  9
$DIMLIM
 70
     0
  9
$DIMTIH
 70
     0
  9
$DIMTOH
 70
     0
  9
$DIMSE1
 70
     0
  9
$DIMSE2
 70
     0
  9
$DIMTAD
 70
     1
  9
$DIMZIN
 70
     8
  9
$DIMBLK
  1

  9
$DIMASO
 70
     1
  9
$DIMSHO
 70
     1
  9
$DIMPOST
  1

  9
$DIMAPOST
  1

  9
$DIMALT
 70
     0
  9
$DIMALTD
 70
     3
  9
$DIMALTF
 40
0.03937007874016
  9
$DIMLFAC
 40
1.0
  9
$DIMTOFL
 70
     1
  9
$DIMTVP
 40
0.0
  9
$DIMTIX
 70
     0
  9
$DIMSOXD
 70
     0
  9
$DIMSAH
 70
     0
  9
$DIMBLK1
  1

  9
$DIMBLK2
  1

  9
$DIMSTYLE
  2
ISO-25
  9
$DIMCLRD
 70
     0
  9
$DIMCLRE
 70
     0
  9
$DIMCLRT
 70
     0
  9
$DIMTFAC
 40
1.0
  9
$DIMGAP
 40
0.625
  9
$DIMJUST
 70
     0
  9
$DIMSD1
 70
     0
  9
$DIMSD2
 70
     0
  9
$DIMTOLJ
 70
     0
  9
$DIMTZIN
 70
     8
  9
$DIMALTZ
 70
     0
  9
$DIMALTTZ
 70
     0
  9
$DIMFIT
 70
     3
  9
$DIMUPT
 70
     0
  9
$DIMUNIT
 70
     2
  9
$DIMDEC
 70
     2
  9
$DIMTDEC
 70
     2
  9
$DIMALTU
 70
     2
  9
$DIMALTTD
 70
     3
  9
$DIMTXSTY
  7
STANDARD
  9
$DIMAUNIT
 70
     0
  9
$LUNITS
 70
     2
  9
$LUPREC
 70
     4
  9
$SKETCHINC
 40
1.0
  9
$FILLETRAD
 40
10.0
  9
$AUNITS
 70
     0
  9
$AUPREC
 70
     0
  9
$MENU
  1
.
  9
$ELEVATION
 40
0.0
  9
$PELEVATION
 40
0.0
  9
$THICKNESS
 40
0.0
  9
$LIMCHECK
 70
     0
  9
$CHAMFERA
 40
0.0
  9
$CHAMFERB
 40
0.0
  9
$CHAMFERC
 40
0.0
  9
$CHAMFERD
 40
0.0
  9
$SKPOLY
 70
     0
  9
$TDCREATE
 40
2457423.491158032
  9
$TDUPDATE
 40
2457423.491158148
  9
$TDINDWG
 40
0.0000000116
  9
$TDUSRTIMER
 40
0.0000000116
  9
$USRTIMER
 70
     1
  9
$ANGBASE
 50
0.0
  9
$ANGDIR
 70
     0
  9
$PDMODE
 70
     0
  9
$PDSIZE
 40
0.0
  9
$PLINEWID
 40
0.0
  9
$COORDS
 70
     1
  9
$SPLFRAME
 70
     0
  9
$SPLINETYPE
 70
     6
  9
$SPLINESEGS
 70
     8
  9
$ATTDIA
 70
     0
  9
$ATTREQ
 70
     1
  9
$HANDLING
 70
     1
  9
$HANDSEED
  5
4B4
  9
$SURFTAB1
 70
     6
  9
$SURFTAB2
 70
     6
  9
$SURFTYPE
 70
     6
  9
$SURFU
 70
     6
  9
$SURFV
 70
     6
  9
$UCSNAME
  2

  9
$UCSORG
 10
0.0
 20
0.0
 30
0.0
  9
$UCSXDIR
 10
1.0
 20
0.0
 30
0.0
  9
$UCSYDIR
 10
0.0
 20
1.0
 30
0.0
  9
$PUCSNAME
  2

  9
$PUCSORG
 10
0.0
 20
0.0
 30
0.0
  9
$PUCSXDIR
 10
1.0
 20
0.0
 30
0.0
  9
$PUCSYDIR
 10
0.0
 20
1.0
 30
0.0
  9
$USERI1
 70
     0
  9
$USERI2
 70
     0
  9
$USERI3
 70
     0
  9
$USERI4
 70
     0
  9
$USERI5
 70
     0
  9
$USERR1
 40
0.0
  9
$USERR2
 40
0.0
  9
$USERR3
 40
0.0
  9
$USERR4
 40
0.0
  9
$USERR5
 40
0.0
  9
$WORLDVIEW
 70
     1
  9
$SHADEDGE
 70
     3
  9
$SHADEDIF
 70
    70
  9
$TILEMODE
 70
     1
  9
$MAXACTVP
 70
    64
  9
$PINSBASE
 10
0.0
 20
0.0
 30
0.0
  9
$PLIMCHECK
 70
     0
  9
$PEXTMIN
 10
1.000000000000000E+20
 20
1.000000000000000E+20
 30
1.000000000000000E+20
  9
$PEXTMAX
 10
-1.000000000000000E+20
 20
-1.000000000000000E+20
 30
-1.000000000000000E+20
  9
$PLIMMIN
 10
0.0
 20
0.0
  9
$PLIMMAX
 10
420.0
 20
297.0
  9
$UNITMODE
 70
     0
  9
$VISRETAIN
 70
     1
  9
$PLINEGEN
 70
     0
  9
$PSLTSCALE
 70
     1
  9
$TREEDEPTH
 70
  3020
  9
$PICKSTYLE
 70
     1
  9
$CMLSTYLE
  2
STANDARD
  9
$CMLJUST
 70
     0
  9
$CMLSCALE
 40
20.0
  9
$PROXYGRAPHICS
 70
     1
  9
$MEASUREMENT
 70
     1
  0
ENDSEC
  0
SECTION
  2
CLASSES
  0
CLASS
  1
ACDBDICTIONARYWDFLT
  2
AcDbDictionaryWithDefault
  3
ObjectDBX Classes
 90
        0
280
     0
281
     0
  0
CLASS
  1
VISUALSTYLE
  2
AcDbVisualStyle
  3
ObjectDBX Classes
 90
     4095
280
     0
281
     0
  0
CLASS
  1
MATERIAL
  2
AcDbMaterial
  3
ObjectDBX Classes
 90
     1153
280
     0
281
     0
  0
CLASS
  1
SCALE
  2
AcDbScale
  3
ObjectDBX Classes
 90
     1153
280
     0
281
     0
  0
CLASS
  1
SUN
  2
AcDbSun
  3
SCENEOE
 90
     1153
280
     0
281
     0
  0
CLASS
  1
DICTIONARYVAR
  2
AcDbDictionaryVar
  3
ObjectDBX Classes
 90
        0
280
     0
281
     0
  0
CLASS
  1
XRECORD
  2
AcDbXrecord
  3
ObjectDBX Classes
 90
        0
280
     0
281
     0
  0
CLASS
  1
LWPOLYLINE
  2
AcDbPolyline
  3
ObjectDBX Classes
 90
        0
280
     0
281
     1
  0
CLASS
  1
HATCH
  2
AcDbHatch
  3
ObjectDBX Classes
 90
        0
280
     0
281
     1
  0
CLASS
  1
ACDBPLACEHOLDER
  2
AcDbPlaceHolder
  3
ObjectDBX Classes
 90
        0
280
     0
281
     0
  0
CLASS
  1
LAYOUT
  2
AcDbLayout
  3
ObjectDBX Classes
 90
        0
280
     0
281
     0
  0
ENDSEC
  0
SECTION
  2
TABLES
  0
TABLE
  2
VPORT
  5
8
330
0
100
AcDbSymbolTable
 70
     1
  0
VPORT
  5
29
330
8
100
AcDbSymbolTableRecord
100
AcDbViewportTableRecord
  2
*ACTIVE
 70
     0
 10
0.0
 20
0.0
 11
1.0
 21
1.0
 12
177.0
 22
127.5
 13
0.0
 23
0.0
 14
10.0
 24
10.0
 15
10.0
 25
10.0
 16
0.0
 26
0.0
 36
1.0
 17
0.0
 27
0.0
 37
0.0
 40
189.0
 41
1.153439153439153
 42
50.0
 43
0.0
 44
0.0
 50
0.0
 51
0.0
 71
     0
 72
  1000
 73
     1
 74
     3
 75
     0
 76
     0
 77
     0
 78
     0
  0
ENDTAB
  0
TABLE
  2
LTYPE
  5
5
330
0
100
AcDbSymbolTable
 70
    13
  0
LTYPE
  5
14
330
5
100
AcDbSymbolTableRecord
100
AcDbLinetypeTableRecord
  2
BYBLOCK
 70
     0
  3

 72
    65
 73
     0
 40
0.0
  0
LTYPE
  5
15
330
5
100
AcDbSymbolTableRecord
100
AcDbLinetypeTableRecord
  2
BYLAYER
 70
     0
  3

 72
    65
 73
     0
 40
0.0
  0
LTYPE
  5
16
330
5
100
AcDbSymbolTableRecord
100
AcDbLinetypeTableRecord
  2
CONTINUOUS
 70
     0
  3
Solid line
 72
    65
 73
     0
 40
0.0
  0
LTYPE
  5
6A
330
5
100
AcDbSymbolTableRecord
100
AcDbLinetypeTableRecord
  2
EXLTYPE1
 70
     0
  3
破線
 72
    65
 73
     2
 40
3.8
 49
3.0
 74
     0
 49
-0.8
 74
     0
  0
LTYPE
  5
6B
330
5
100
AcDbSymbolTableRecord
100
AcDbLinetypeTableRecord
  2
EXLTYPE2
 70
     0
  3
点線
 72
    65
 73
     2
 40
2.0
 49
1.0
 74
     0
 49
-1.0
 74
     0
  0
LTYPE
  5
6C
330
5
100
AcDbSymbolTableRecord
100
AcDbLinetypeTableRecord
  2
EXLTYPE3
 70
     0
  3
一点鎖線
 72
    65
 73
     4
 40
13.0
 49
10.0
 74
     0
 49
-1.0
 74
     0
 49
1.0
 74
     0
 49
-1.0
 74
     0
  0
LTYPE
  5
6D
330
5
100
AcDbSymbolTableRecord
100
AcDbLinetypeTableRecord
  2
EXLTYPE4
 70
     0
  3
二点鎖線
 72
    65
 73
     6
 40
15.0
 49
10.0
 74
     0
 49
-1.0
 74
     0
 49
1.0
 74
     0
 49
-1.0
 74
     0
 49
1.0
 74
     0
 49
-1.0
 74
     0
  0
LTYPE
  5
6E
330
5
100
AcDbSymbolTableRecord
100
AcDbLinetypeTableRecord
  2
EXLTYPE5
 70
     0
  3
三点鎖線
 72
    65
 73
     8
 40
37.0
 49
30.0
 74
     0
 49
-1.0
 74
     0
 49
1.0
 74
     0
 49
-1.0
 74
     0
 49
1.0
 74
     0
 49
-1.0
 74
     0
 49
1.0
 74
     0
 49
-1.0
 74
     0
  0
LTYPE
  5
6F
330
5
100
AcDbSymbolTableRecord
100
AcDbLinetypeTableRecord
  2
EXLTYPE6
 70
     0
  3
四点鎖線
 72
    65
 73
    10
 40
39.0
 49
30.0
 74
     0
 49
-1.0
 74
     0
 49
1.0
 74
     0
 49
-1.0
 74
     0
 49
1.0
 74
     0
 49
-1.0
 74
     0
 49
1.0
 74
     0
 49
-1.0
 74
     0
 49
1.0
 74
     0
 49
-1.0
 74
     0
  0
LTYPE
  5
70
330
5
100
AcDbSymbolTableRecord
100
AcDbLinetypeTableRecord
  2
EXLTYPE7
 70
     0
  3
一点鎖線2
 72
    65
 73
     4
 40
7.100000000000001
 49
5.0
 74
     0
 49
-0.7
 74
     0
 49
0.7
 74
     0
 49
-0.7
 74
     0
  0
LTYPE
  5
71
330
5
100
AcDbSymbolTableRecord
100
AcDbLinetypeTableRecord
  2
EXLTYPE8
 70
     0
  3
二点鎖線3
 72
    65
 73
     6
 40
4.5
 49
2.0
 74
     0
 49
-0.5
 74
     0
 49
0.5
 74
     0
 49
-0.5
 74
     0
 49
0.5
 74
     0
 49
-0.5
 74
     0
  0
LTYPE
  5
72
330
5
100
AcDbSymbolTableRecord
100
AcDbLinetypeTableRecord
  2
EXLTYPE9
 70
     0
  3
二点鎖線2
 72
    65
 73
     6
 40
7.5
 49
5.0
 74
     0
 49
-0.5
 74
     0
 49
0.5
 74
     0
 49
-0.5
 74
     0
 49
0.5
 74
     0
 49
-0.5
 74
     0
  0
LTYPE
  5
73
330
5
100
AcDbSymbolTableRecord
100
AcDbLinetypeTableRecord
  2
EXLTYPE10
 70
     0
  3
二点鎖線3
 72
    65
 73
     6
 40
4.5
 49
2.0
 74
     0
 49
-0.5
 74
     0
 49
0.5
 74
     0
 49
-0.5
 74
     0
 49
0.5
 74
     0
 49
-0.5
 74
     0
  0
LTYPE
  5
74
330
5
100
AcDbSymbolTableRecord
100
AcDbLinetypeTableRecord
  2
EXLTYPE11
 70
     0
  3
二点鎖線2
 72
    65
 73
     6
 40
7.5
 49
5.0
 74
     0
 49
-0.5
 74
     0
 49
0.5
 74
     0
 49
-0.5
 74
     0
 49
0.5
 74
     0
 49
-0.5
 74
     0
  0
LTYPE
  5
75
330
5
100
AcDbSymbolTableRecord
100
AcDbLinetypeTableRecord
  2
EXLTYPE12
 70
     0
  3
点線2
 72
    65
 73
     2
 40
1.0
 49
0.5
 74
     0
 49
-0.5
 74
     0
  0
ENDTAB
  0
TABLE
  2
LAYER
  5
2
330
0
100
AcDbSymbolTable
 70
     3
  0
LAYER
  5
10
330
2
100
AcDbSymbolTableRecord
100
AcDbLayerTableRecord
  2
0
 70
     0
 62
     7
  6
CONTINUOUS
  0
LAYER
  5
78
330
2
100
AcDbSymbolTableRecord
100
AcDbLayerTableRecord
  2
LAY-1
 70
     0
 62
     7
  6
CONTINUOUS
  0
LAYER
  5
79
330
2
100
AcDbSymbolTableRecord
100
AcDbLayerTableRecord
  2
LAY-2
 70
     0
 62
     7
  6
CONTINUOUS
  0
ENDTAB
  0
TABLE
  2
STYLE
  5
3
330
0
100
AcDbSymbolTable
 70
     4
  0
STYLE
  5
11
330
3
100
AcDbSymbolTableRecord
100
AcDbTextStyleTableRecord
  2
STANDARD
 70
     0
 40
0.0
 41
1.0
 50
0.0
 71
     0
 42
2.5
  3
monotxt
  4
extfont
  0
STYLE
  5
76
330
3
100
AcDbSymbolTableRecord
100
AcDbTextStyleTableRecord
  2
EXCADSTD
 70
     0
 40
0.0
 41
1.0
 50
0.0
 71
     0
 42
2.5
  3
monotxt
  4
extfont
  0
STYLE
  5
77
330
3
100
AcDbSymbolTableRecord
100
AcDbTextStyleTableRecord
  2
EXCADVERT
 70
     4
 40
0.0
 41
1.0
 50
0.0
 71
     0
 42
2.5
  3
monotxt
  4
extfont
  0
STYLE
  5
47E
330
3
100
AcDbSymbolTableRecord
100
AcDbTextStyleTableRecord
  2
EXCADTTF1
 70
     0
 40
0.0
 41
1.0
 50
0.0
 71
     0
 42
2.5
  3
msmincho.ttc
  4

1001
ACAD
1000
MS Mincho
1071
    32785
  0
ENDTAB
  0
TABLE
  2
VIEW
  5
6
330
0
100
AcDbSymbolTable
 70
     0
  0
ENDTAB
  0
TABLE
  2
UCS
  5
7
330
0
100
AcDbSymbolTable
 70
     0
  0
ENDTAB
  0
TABLE
  2
APPID
  5
9
330
0
100
AcDbSymbolTable
 70
     1
  0
APPID
  5
12
330
9
100
AcDbSymbolTableRecord
100
AcDbRegAppTableRecord
  2
ACAD
 70
     0
  0
ENDTAB
  0
TABLE
  2
DIMSTYLE
  5
A
330
0
100
AcDbSymbolTable
 70
     1
  0
DIMSTYLE
105
27
330
A
100
AcDbSymbolTableRecord
100
AcDbDimStyleTableRecord
  2
ISO-25
 70
     0
  3

  4

  5

  6

  7

 40
1.0
 41
2.5
 42
0.625
 43
3.75
 44
1.25
 45
0.0
 46
0.0
 47
0.0
 48
0.0
140
2.5
141
2.5
142
0.0
143
0.03937007874016
144
1.0
145
0.0
146
1.0
147
0.625
 71
     0
 72
     0
 73
     0
 74
     0
 75
     0
 76
     0
 77
     1
 78
     8
170
     0
171
     3
172
     1
173
     0
174
     0
175
     0
176
     0
177
     0
178
     0
270
     2
271
     2
272
     2
273
     2
274
     3
340
11
275
     0
280
     0
281
     0
282
     0
283
     0
284
     8
285
     0
286
     0
287
     5
288
     0
  0
ENDTAB
  0
TABLE
  2
BLOCK_RECORD
  5
1
330
0
100
AcDbSymbolTable
 70
    15
  0
BLOCK_RECORD
  5
1F
330
1
100
AcDbSymbolTableRecord
100
AcDbBlockTableRecord
  2
*MODEL_SPACE
  0
BLOCK_RECORD
  5
1B
330
1
100
AcDbSymbolTableRecord
100
AcDbBlockTableRecord
  2
*PAPER_SPACE
  0
BLOCK_RECORD
  5
7A
330
1
100
AcDbSymbolTableRecord
100
AcDbBlockTableRecord
  2
EX_NORM
  0
BLOCK_RECORD
  5
7D
330
1
100
AcDbSymbolTableRecord
100
AcDbBlockTableRecord
  2
EX_BNORM
  0
BLOCK_RECORD
  5
80
330
1
100
AcDbSymbolTableRecord
100
AcDbBlockTableRecord
  2
EX_BCIR
  0
BLOCK_RECORD
  5
83
330
1
100
AcDbSymbolTableRecord
100
AcDbBlockTableRecord
  2
EX_RCIVIL
  0
BLOCK_RECORD
  5
86
330
1
100
AcDbSymbolTableRecord
100
AcDbBlockTableRecord
  2
EX_SLANT
  0
BLOCK_RECORD
  5
89
330
1
100
AcDbSymbolTableRecord
100
AcDbBlockTableRecord
  2
EX_NONE
  0
BLOCK_RECORD
  5
8C
330
1
100
AcDbSymbolTableRecord
100
AcDbBlockTableRecord
  2
EX_CIVIL
  0
BLOCK_RECORD
  5
8F
330
1
100
AcDbSymbolTableRecord
100
AcDbBlockTableRecord
  2
EX_WCIR
  0
BLOCK_RECORD
  5
92
330
1
100
AcDbSymbolTableRecord
100
AcDbBlockTableRecord
  2
EX_WCIR2
  0
BLOCK_RECORD
  5
95
330
1
100
AcDbSymbolTableRecord
100
AcDbBlockTableRecord
  2
EX_WNORM
  0
BLOCK_RECORD
  5
98
330
1
100
AcDbSymbolTableRecord
100
AcDbBlockTableRecord
  2
EX_NNORM
  0
BLOCK_RECORD
  5
9B
330
1
100
AcDbSymbolTableRecord
100
AcDbBlockTableRecord
  2
EX_BBOX
  0
BLOCK_RECORD
  5
9E
330
1
100
AcDbSymbolTableRecord
100
AcDbBlockTableRecord
  2
EX_WBOX
  0
BLOCK_RECORD
  5
A1
330
1
100
AcDbSymbolTableRecord
100
AcDbBlockTableRecord
  2
EX_INTEGRAL
  0
ENDTAB
  0
ENDSEC
  0
SECTION
  2
BLOCKS
  0
BLOCK
  5
20
330
1F
100
AcDbEntity
  8
0
100
AcDbBlockBegin
  2
*MODEL_SPACE
 70
     0
 10
0.0
 20
0.0
 30
0.0
  3
*MODEL_SPACE
  1

  0
ENDBLK
  5
21
330
1F
100
AcDbEntity
  8
0
100
AcDbBlockEnd
  0
BLOCK
  5
1C
330
1B
100
AcDbEntity
 67
     1
  8
0
100
AcDbBlockBegin
  2
*PAPER_SPACE
 70
     0
 10
0.0
 20
0.0
 30
0.0
  3
*PAPER_SPACE
  1

  0
ENDBLK
  5
1D
330
1B
100
AcDbEntity
 67
     1
  8
0
100
AcDbBlockEnd
  0
BLOCK
  5
7B
330
7A
100
AcDbEntity
  8
0
100
AcDbBlockBegin
  2
EX_NORM
 70
     0
 10
0.0
 20
0.0
 30
0.0
  3
EX_NORM
  1
EX_NORM
  0
LINE
  5
A4
330
7A
100
AcDbEntity
  8
0
  6
CONTINUOUS
 62
     0
100
AcDbLine
 10
0.0
 20
0.0
 30
0.0
 11
-1.0
 21
0.0
 31
0.0
  0
LINE
  5
A5
330
7A
100
AcDbEntity
  8
0
  6
CONTINUOUS
 62
     0
100
AcDbLine
 10
0.0
 20
0.0
 30
0.0
 11
-1.0
 21
0.166666667
 31
0.0
  0
LINE
  5
A6
330
7A
100
AcDbEntity
  8
0
  6
CONTINUOUS
 62
     0
100
AcDbLine
 10
0.0
 20
0.0
 30
0.0
 11
-1.0
 21
-0.166666667
 31
0.0
  0
ENDBLK
  5
7C
330
7A
100
AcDbEntity
  8
0
100
AcDbBlockEnd
  0
BLOCK
  5
7E
330
7D
100
AcDbEntity
  8
0
100
AcDbBlockBegin
  2
EX_BNORM
 70
     0
 10
0.0
 20
0.0
 30
0.0
  3
EX_BNORM
  1
EX_BNORM
  0
LINE
  5
A7
330
7D
100
AcDbEntity
  8
0
  6
CONTINUOUS
 62
     0
100
AcDbLine
 10
0.0
 20
0.0
 30
0.0
 11
-1.0
 21
0.0
 31
0.0
  0
LINE
  5
A8
330
7D
100
AcDbEntity
  8
0
  6
CONTINUOUS
 62
     0
100
AcDbLine
 10
0.0
 20
0.0
 30
0.0
 11
-1.0
 21
0.166666667
 31
0.0
  0
LINE
  5
A9
330
7D
100
AcDbEntity
  8
0
  6
CONTINUOUS
 62
     0
100
AcDbLine
 10
0.0
 20
0.0
 30
0.0
 11
-1.0
 21
-0.166666667
 31
0.0
  0
LINE
  5
AA
330
7D
100
AcDbEntity
  8
0
  6
CONTINUOUS
 62
     0
100
AcDbLine
 10
0.0
 20
0.0
 30
0.0
 11
-1.0
 21
0.083333333
 31
0.0
  0
LINE
  5
AB
330
7D
100
AcDbEntity
  8
0
  6
CONTINUOUS
 62
     0
100
AcDbLine
 10
0.0
 20
0.0
 30
0.0
 11
-1.0
 21
-0.083333333
 31
0.0
  0
LINE
  5
AC
330
7D
100
AcDbEntity
  8
0
  6
CONTINUOUS
 62
     0
100
AcDbLine
 10
-1.0
 20
0.166666667
 30
0.0
 11
-1.0
 21
-0.166666667
 31
0.0
  0
ENDBLK
  5
7F
330
7D
100
AcDbEntity
  8
0
100
AcDbBlockEnd
  0
BLOCK
  5
81
330
80
100
AcDbEntity
  8
0
100
AcDbBlockBegin
  2
EX_BCIR
 70
     0
 10
0.0
 20
0.0
 30
0.0
  3
EX_BCIR
  1
EX_BCIR
  0
LINE
  5
AD
330
80
100
AcDbEntity
  8
0
  6
CONTINUOUS
 62
     0
100
AcDbLine
 10
0.0
 20
0.0
 30
0.0
 11
-1.0
 21
0.0
 31
0.0
  0
CIRCLE
  5
AE
330
80
100
AcDbEntity
  8
0
  6
CONTINUOUS
 62
     0
100
AcDbCircle
 10
0.0
 20
0.0
 30
0.0
 40
0.5
  0
CIRCLE
  5
AF
330
80
100
AcDbEntity
  8
0
  6
CONTINUOUS
 62
     0
100
AcDbCircle
 10
0.0
 20
0.0
 30
0.0
 40
0.25
  0
ENDBLK
  5
82
330
80
100
AcDbEntity
  8
0
100
AcDbBlockEnd
  0
BLOCK
  5
84
330
83
100
AcDbEntity
  8
0
100
AcDbBlockBegin
  2
EX_RCIVIL
 70
     0
 10
0.0
 20
0.0
 30
0.0
  3
EX_RCIVIL
  1
EX_RCIVIL
  0
LINE
  5
B0
330
83
100
AcDbEntity
  8
0
  6
CONTINUOUS
 62
     0
100
AcDbLine
 10
0.0
 20
0.0
 30
0.0
 11
-1.0
 21
0.0
 31
0.0
  0
LINE
  5
B1
330
83
100
AcDbEntity
  8
0
  6
CONTINUOUS
 62
     0
100
AcDbLine
 10
-1.0
 20
-0.25
 30
0.0
 11
0.0
 21
-0.25
 31
0.0
  0
LINE
  5
B2
330
83
100
AcDbEntity
  8
0
  6
CONTINUOUS
 62
     0
100
AcDbLine
 10
-1.0
 20
-0.125
 30
0.0
 11
0.0
 21
-0.125
 31
0.0
  0
ENDBLK
  5
85
330
83
100
AcDbEntity
  8
0
100
AcDbBlockEnd
  0
BLOCK
  5
87
330
86
100
AcDbEntity
  8
0
100
AcDbBlockBegin
  2
EX_SLANT
 70
     0
 10
0.0
 20
0.0
 30
0.0
  3
EX_SLANT
  1
EX_SLANT
  0
LINE
  5
B3
330
86
100
AcDbEntity
  8
0
  6
CONTINUOUS
 62
     0
100
AcDbLine
 10
0.0
 20
0.0
 30
0.0
 11
-1.0
 21
0.0
 31
0.0
  0
LINE
  5
B4
330
86
100
AcDbEntity
  8
0
  6
CONTINUOUS
 62
     0
100
AcDbLine
 10
0.707106781
 20
0.707106781
 30
0.0
 11
-0.707106781
 21
-0.707106781
 31
0.0
  0
ENDBLK
  5
88
330
86
100
AcDbEntity
  8
0
100
AcDbBlockEnd
  0
BLOCK
  5
8A
330
89
100
AcDbEntity
  8
0
100
AcDbBlockBegin
  2
EX_NONE
 70
     0
 10
0.0
 20
0.0
 30
0.0
  3
EX_NONE
  1
EX_NONE
  0
LINE
  5
B5
330
89
100
AcDbEntity
  8
0
  6
CONTINUOUS
 62
     0
100
AcDbLine
 10
0.0
 20
0.0
 30
0.0
 11
-1.0
 21
0.0
 31
0.0
  0
ENDBLK
  5
8B
330
89
100
AcDbEntity
  8
0
100
AcDbBlockEnd
  0
BLOCK
  5
8D
330
8C
100
AcDbEntity
  8
0
100
AcDbBlockBegin
  2
EX_CIVIL
 70
     0
 10
0.0
 20
0.0
 30
0.0
  3
EX_CIVIL
  1
EX_CIVIL
  0
LINE
  5
B6
330
8C
100
AcDbEntity
  8
0
  6
CONTINUOUS
 62
     0
100
AcDbLine
 10
0.0
 20
0.0
 30
0.0
 11
-1.0
 21
0.0
 31
0.0
  0
LINE
  5
B7
330
8C
100
AcDbEntity
  8
0
  6
CONTINUOUS
 62
     0
100
AcDbLine
 10
-1.0
 20
0.25
 30
0.0
 11
0.0
 21
0.25
 31
0.0
  0
LINE
  5
B8
330
8C
100
AcDbEntity
  8
0
  6
CONTINUOUS
 62
     0
100
AcDbLine
 10
-1.0
 20
0.125
 30
0.0
 11
0.0
 21
0.125
 31
0.0
  0
ENDBLK
  5
8E
330
8C
100
AcDbEntity
  8
0
100
AcDbBlockEnd
  0
BLOCK
  5
90
330
8F
100
AcDbEntity
  8
0
100
AcDbBlockBegin
  2
EX_WCIR
 70
     0
 10
0.0
 20
0.0
 30
0.0
  3
EX_WCIR
  1
EX_WCIR
  0
LINE
  5
B9
330
8F
100
AcDbEntity
  8
0
  6
CONTINUOUS
 62
     0
100
AcDbLine
 10
0.0
 20
0.0
 30
0.0
 11
-1.0
 21
0.0
 31
0.0
  0
CIRCLE
  5
BA
330
8F
100
AcDbEntity
  8
0
  6
CONTINUOUS
 62
     0
100
AcDbCircle
 10
0.0
 20
0.0
 30
0.0
 40
0.5
  0
ENDBLK
  5
91
330
8F
100
AcDbEntity
  8
0
100
AcDbBlockEnd
  0
BLOCK
  5
93
330
92
100
AcDbEntity
  8
0
100
AcDbBlockBegin
  2
EX_WCIR2
 70
     0
 10
0.0
 20
0.0
 30
0.0
  3
EX_WCIR2
  1
EX_WCIR2
  0
LINE
  5
BB
330
92
100
AcDbEntity
  8
0
  6
CONTINUOUS
 62
     0
100
AcDbLine
 10
-0.5
 20
0.0
 30
0.0
 11
-1.0
 21
0.0
 31
0.0
  0
CIRCLE
  5
BC
330
92
100
AcDbEntity
  8
0
  6
CONTINUOUS
 62
     0
100
AcDbCircle
 10
0.0
 20
0.0
 30
0.0
 40
0.5
  0
ENDBLK
  5
94
330
92
100
AcDbEntity
  8
0
100
AcDbBlockEnd
  0
BLOCK
  5
96
330
95
100
AcDbEntity
  8
0
100
AcDbBlockBegin
  2
EX_WNORM
 70
     0
 10
0.0
 20
0.0
 30
0.0
  3
EX_WNORM
  1
EX_WNORM
  0
LINE
  5
BD
330
95
100
AcDbEntity
  8
0
  6
CONTINUOUS
 62
     0
100
AcDbLine
 10
-1.0
 20
0.0
 30
0.0
 11
-1.0
 21
0.0
 31
0.0
  0
LINE
  5
BE
330
95
100
AcDbEntity
  8
0
  6
CONTINUOUS
 62
     0
100
AcDbLine
 10
0.0
 20
0.0
 30
0.0
 11
-1.0
 21
0.166666667
 31
0.0
  0
LINE
  5
BF
330
95
100
AcDbEntity
  8
0
  6
CONTINUOUS
 62
     0
100
AcDbLine
 10
0.0
 20
0.0
 30
0.0
 11
-1.0
 21
-0.166666667
 31
0.0
  0
LINE
  5
C0
330
95
100
AcDbEntity
  8
0
  6
CONTINUOUS
 62
     0
100
AcDbLine
 10
-1.0
 20
0.166666667
 30
0.0
 11
-1.0
 21
-0.166666667
 31
0.0
  0
ENDBLK
  5
97
330
95
100
AcDbEntity
  8
0
100
AcDbBlockEnd
  0
BLOCK
  5
99
330
98
100
AcDbEntity
  8
0
100
AcDbBlockBegin
  2
EX_NNORM
 70
     0
 10
0.0
 20
0.0
 30
0.0
  3
EX_NNORM
  1
EX_NNORM
  0
LINE
  5
C1
330
98
100
AcDbEntity
  8
0
  6
CONTINUOUS
 62
     0
100
AcDbLine
 10
0.0
 20
0.0
 30
0.0
 11
-1.0
 21
0.0
 31
0.0
  0
LINE
  5
C2
330
98
100
AcDbEntity
  8
0
  6
CONTINUOUS
 62
     0
100
AcDbLine
 10
0.0
 20
0.0
 30
0.0
 11
-1.0
 21
0.166666667
 31
0.0
  0
LINE
  5
C3
330
98
100
AcDbEntity
  8
0
  6
CONTINUOUS
 62
     0
100
AcDbLine
 10
0.0
 20
0.0
 30
0.0
 11
-1.0
 21
-0.166666667
 31
0.0
  0
LINE
  5
C4
330
98
100
AcDbEntity
  8
0
  6
CONTINUOUS
 62
     0
100
AcDbLine
 10
-1.0
 20
0.166666667
 30
0.0
 11
-1.0
 21
-0.166666667
 31
0.0
  0
ENDBLK
  5
9A
330
98
100
AcDbEntity
  8
0
100
AcDbBlockEnd
  0
BLOCK
  5
9C
330
9B
100
AcDbEntity
  8
0
100
AcDbBlockBegin
  2
EX_BBOX
 70
     0
 10
0.0
 20
0.0
 30
0.0
  3
EX_BBOX
  1
EX_BBOX
  0
LINE
  5
C5
330
9B
100
AcDbEntity
  8
0
  6
CONTINUOUS
 62
     0
100
AcDbLine
 10
0.0
 20
0.0
 30
0.0
 11
-1.0
 21
0.0
 31
0.0
  0
LINE
  5
C6
330
9B
100
AcDbEntity
  8
0
  6
CONTINUOUS
 62
     0
100
AcDbLine
 10
-0.5
 20
0.5
 30
0.0
 11
0.5
 21
0.5
 31
0.0
  0
LINE
  5
C7
330
9B
100
AcDbEntity
  8
0
  6
CONTINUOUS
 62
     0
100
AcDbLine
 10
0.5
 20
0.5
 30
0.0
 11
0.5
 21
-0.5
 31
0.0
  0
LINE
  5
C8
330
9B
100
AcDbEntity
  8
0
  6
CONTINUOUS
 62
     0
100
AcDbLine
 10
0.5
 20
-0.5
 30
0.0
 11
-0.5
 21
-0.5
 31
0.0
  0
LINE
  5
C9
330
9B
100
AcDbEntity
  8
0
  6
CONTINUOUS
 62
     0
100
AcDbLine
 10
-0.5
 20
-0.5
 30
0.0
 11
-0.5
 21
0.5
 31
0.0
  0
LINE
  5
CA
330
9B
100
AcDbEntity
  8
0
  6
CONTINUOUS
 62
     0
100
AcDbLine
 10
-0.25
 20
0.25
 30
0.0
 11
0.25
 21
0.25
 31
0.0
  0
LINE
  5
CB
330
9B
100
AcDbEntity
  8
0
  6
CONTINUOUS
 62
     0
100
AcDbLine
 10
0.25
 20
0.25
 30
0.0
 11
0.25
 21
-0.25
 31
0.0
  0
LINE
  5
CC
330
9B
100
AcDbEntity
  8
0
  6
CONTINUOUS
 62
     0
100
AcDbLine
 10
0.25
 20
-0.25
 30
0.0
 11
-0.25
 21
-0.25
 31
0.0
  0
LINE
  5
CD
330
9B
100
AcDbEntity
  8
0
  6
CONTINUOUS
 62
     0
100
AcDbLine
 10
-0.25
 20
-0.25
 30
0.0
 11
-0.25
 21
0.25
 31
0.0
  0
ENDBLK
  5
9D
330
9B
100
AcDbEntity
  8
0
100
AcDbBlockEnd
  0
BLOCK
  5
9F
330
9E
100
AcDbEntity
  8
0
100
AcDbBlockBegin
  2
EX_WBOX
 70
     0
 10
0.0
 20
0.0
 30
0.0
  3
EX_WBOX
  1
EX_WBOX
  0
LINE
  5
CE
330
9E
100
AcDbEntity
  8
0
  6
CONTINUOUS
 62
     0
100
AcDbLine
 10
-0.5
 20
0.0
 30
0.0
 11
-1.0
 21
0.0
 31
0.0
  0
LINE
  5
CF
330
9E
100
AcDbEntity
  8
0
  6
CONTINUOUS
 62
     0
100
AcDbLine
 10
-0.5
 20
0.5
 30
0.0
 11
0.5
 21
0.5
 31
0.0
  0
LINE
  5
D0
330
9E
100
AcDbEntity
  8
0
  6
CONTINUOUS
 62
     0
100
AcDbLine
 10
0.5
 20
0.5
 30
0.0
 11
0.5
 21
-0.5
 31
0.0
  0
LINE
  5
D1
330
9E
100
AcDbEntity
  8
0
  6
CONTINUOUS
 62
     0
100
AcDbLine
 10
0.5
 20
-0.5
 30
0.0
 11
-0.5
 21
-0.5
 31
0.0
  0
LINE
  5
D2
330
9E
100
AcDbEntity
  8
0
  6
CONTINUOUS
 62
     0
100
AcDbLine
 10
-0.5
 20
-0.5
 30
0.0
 11
-0.5
 21
0.5
 31
0.0
  0
ENDBLK
  5
A0
330
9E
100
AcDbEntity
  8
0
100
AcDbBlockEnd
  0
BLOCK
  5
A2
330
A1
100
AcDbEntity
  8
0
100
AcDbBlockBegin
  2
EX_INTEGRAL
 70
     0
 10
0.0
 20
0.0
 30
0.0
  3
EX_INTEGRAL
  1
EX_INTEGRAL
  0
LINE
  5
D3
330
A1
100
AcDbEntity
  8
0
  6
CONTINUOUS
 62
     0
100
AcDbLine
 10
0.0
 20
0.0
 30
0.0
 11
-1.0
 21
0.0
 31
0.0
  0
ARC
  5
D4
330
A1
100
AcDbEntity
  8
0
  6
CONTINUOUS
 62
     0
100
AcDbCircle
 10
0.542115
 20
0.164992
 30
0.0
 40
0.56667
100
AcDbArc
 50
73.07249033629006
 51
196.9275130221199
  0
ARC
  5
D5
330
A1
100
AcDbEntity
  8
0
  6
CONTINUOUS
 62
     0
100
AcDbCircle
 10
-0.542115
 20
-0.164992
 30
0.0
 40
0.56667
100
AcDbArc
 50
253.0724869220464
 51
16.9275130559125
  0
ENDBLK
  5
A3
330
A1
100
AcDbEntity
  8
0
100
AcDbBlockEnd
  0
ENDSEC
  0
SECTION
  2
ENTITIES
  0
LINE
  5
D6
330
1F
100
AcDbEntity
  8
LAY-1
  6
CONTINUOUS
 62
     3
100
AcDbLine
 10
128.809397513304
 20
50.02765158279351
 30
0.0
 11
137.2946788875456
 21
41.54237020855169
 31
0.0
  0
LINE
  5
D7
330
1F
100
AcDbEntity
  8
LAY-1
  6
CONTINUOUS
 62
     3
100
AcDbLine
 10
154.9723484172061
 20
76.19060248669564
 30
0.0
 11
163.457629791448
 21
67.70532111245387
 31
0.0
  0
LINE
  5
D8
330
1F
100
AcDbEntity
  8
LAY-1
  6
CONTINUOUS
 62
     3
100
AcDbLine
 10
150.3761543394969
 20
54.62384566050281
 30
0.0
 11
163.457629791448
 21
67.70532111245393
 31
0.0
  0
LINE
  5
D9
330
1F
100
AcDbEntity
  8
LAY-1
  6
CONTINUOUS
 62
     3
100
AcDbLine
 10
150.3761543394969
 20
54.62384566050281
 30
0.0
 11
137.2946788875456
 21
41.54237020855169
 31
0.0
  0
LINE
  5
DA
330
1F
100
AcDbEntity
  8
LAY-1
  6
CONTINUOUS
 62
     3
100
AcDbLine
 10
128.9193402549831
 20
50.13759432447227
 30
0.0
 11
128.809397513304
 21
50.02765158279351
 31
0.0
  0
ARC
  5
DB
330
1F
100
AcDbEntity
  8
LAY-1
  6
CONTINUOUS
 62
     3
100
AcDbCircle
 10
128.2122334737981
 20
50.84470110566019
 30
0.0
 40
1.0
100
AcDbArc
 50
315.0000000000002
 51
58.12363961968408
  0
LINE
  5
DC
330
1F
100
AcDbEntity
  8
LAY-1
  6
CONTINUOUS
 62
     3
100
AcDbLine
 10
154.8624056755275
 20
76.08065974501648
 30
0.0
 11
154.9723484172061
 21
76.19060248669564
 31
0.0
  0
ARC
  5
DD
330
1F
100
AcDbEntity
  8
LAY-1
  6
CONTINUOUS
 62
     3
100
AcDbCircle
 10
154.1552988943395
 20
76.78776652620164
 30
0.0
 40
1.0
100
AcDbArc
 50
211.876360380319
 51
315.0000000000002
  0
ARC
  5
DE
330
1F
100
AcDbEntity
  8
LAY-1
  6
CONTINUOUS
 62
     3
100
AcDbCircle
 10
66.26417081163152
 20
22.1306571592672
 30
0.0
 40
102.5000000000001
100
AcDbArc
 50
31.87636038031714
 51
36.91698624074533
  0
ARC
  5
DF
330
1F
100
AcDbEntity
  8
LAY-1
  6
CONTINUOUS
 62
     3
100
AcDbCircle
 10
150.6121191443196
 20
85.49999999999886
 30
0.0
 40
3.000000000000002
100
AcDbArc
 50
90.00000000000001
 51
216.9169862407453
  0
LINE
  5
E0
330
1F
100
AcDbEntity
  8
LAY-1
  6
CONTINUOUS
 62
     3
100
AcDbLine
 10
150.6121191443196
 20
88.49999999999886
 30
0.0
 11
152.1270166537919
 21
88.49999999999886
 31
0.0
  0
LINE
  5
E1
330
1F
100
AcDbEntity
  8
LAY-1
  6
CONTINUOUS
 62
     3
100
AcDbLine
 10
93.87298334620664
 20
115.4999999999998
 30
0.0
 11
152.127016653792
 21
115.4999999999997
 31
0.0
  0
ARC
  5
E2
330
1F
100
AcDbEntity
  8
LAY-1
  6
CONTINUOUS
 62
     3
100
AcDbCircle
 10
182.8693428407329
 20
138.7358291883679
 30
0.0
 40
102.5000000000001
100
AcDbArc
 50
211.441907638237
 51
238.1236396196825
  0
LINE
  5
E3
330
1F
100
AcDbEntity
  8
LAY-1
  6
CONTINUOUS
 62
     3
100
AcDbLine
 10
128.9193402549799
 20
50.13759432446997
 30
0.0
 11
154.86240567553
 21
76.08065974502
 31
0.0
  0
POLYLINE
  5
E4
330
1F
100
AcDbEntity
  8
LAY-1
  6
CONTINUOUS
 62
     3
100
AcDb2dPolyline
 66
     1
 10
0.0
 20
0.0
 30
0.0
 70
   128
  0
VERTEX
  5
E5
330
E4
100
AcDbEntity
  8
LAY-1
  6
CONTINUOUS
 62
     3
100
AcDbVertex
100
AcDb2dVertex
 10
94.0
 20
88.0
 30
0.0
  0
VERTEX
  5
E6
330
E4
100
AcDbEntity
  8
LAY-1
  6
CONTINUOUS
 62
     3
100
AcDbVertex
100
AcDb2dVertex
 10
94.03588826131221
 20
88.09660395778172
 30
0.0
  0
VERTEX
  5
E7
330
E4
100
AcDbEntity
  8
LAY-1
  6
CONTINUOUS
 62
     3
100
AcDbVertex
100
AcDb2dVertex
 10
94.13911509609582
 20
88.37091474388197
 30
0.0
  0
VERTEX
  5
E8
330
E4
100
AcDbEntity
  8
LAY-1
  6
CONTINUOUS
 62
     3
100
AcDbVertex
100
AcDb2dVertex
 10
94.30302358062139
 20
88.79968072743337
 30
0.0
  0
VERTEX
  5
E9
330
E4
100
AcDbEntity
  8
LAY-1
  6
CONTINUOUS
 62
     3
100
AcDbVertex
100
AcDb2dVertex
 10
94.52095679115945
 20
89.35965027756853
 30
0.0
  0
VERTEX
  5
EA
330
E4
100
AcDbEntity
  8
LAY-1
  6
CONTINUOUS
 62
     3
100
AcDbVertex
100
AcDb2dVertex
 10
94.78625780398053
 20
90.02757176342008
 30
0.0
  0
VERTEX
  5
EB
330
E4
100
AcDbEntity
  8
LAY-1
  6
CONTINUOUS
 62
     3
100
AcDbVertex
100
AcDb2dVertex
 10
95.09226969535516
 20
90.78019355412061
 30
0.0
  0
VERTEX
  5
EC
330
E4
100
AcDbEntity
  8
LAY-1
  6
CONTINUOUS
 62
     3
100
AcDbVertex
100
AcDb2dVertex
 10
95.43233554155384
 20
91.59426401880279
 30
0.0
  0
VERTEX
  5
ED
330
E4
100
AcDbEntity
  8
LAY-1
  6
CONTINUOUS
 62
     3
100
AcDbVertex
100
AcDb2dVertex
 10
95.79979841884715
 20
92.44653152659919
 30
0.0
  0
VERTEX
  5
EE
330
E4
100
AcDbEntity
  8
LAY-1
  6
CONTINUOUS
 62
     3
100
AcDbVertex
100
AcDb2dVertex
 10
96.18800140350558
 20
93.31374444664243
 30
0.0
  0
VERTEX
  5
EF
330
E4
100
AcDbEntity
  8
LAY-1
  6
CONTINUOUS
 62
     3
100
AcDbVertex
100
AcDb2dVertex
 10
96.59028757179968
 20
94.17265114806517
 30
0.0
  0
VERTEX
  5
F0
330
E4
100
AcDbEntity
  8
LAY-1
  6
CONTINUOUS
 62
     3
100
AcDbVertex
100
AcDb2dVertex
 10
97.0
 20
95.0
 30
0.0
  0
VERTEX
  5
F1
330
E4
100
AcDbEntity
  8
LAY-1
  6
CONTINUOUS
 62
     3
100
AcDbVertex
100
AcDb2dVertex
 10
97.42234634197223
 20
95.79583882501781
 30
0.0
  0
VERTEX
  5
F2
330
E4
100
AcDbEntity
  8
LAY-1
  6
CONTINUOUS
 62
     3
100
AcDbVertex
100
AcDb2dVertex
 10
97.84690948664358
 20
96.53592509594962
 30
0.0
  0
VERTEX
  5
F3
330
E4
100
AcDbEntity
  8
LAY-1
  6
CONTINUOUS
 62
     3
100
AcDbVertex
100
AcDb2dVertex
 10
98.27509710728586
 20
97.22215071218653
 30
0.0
  0
VERTEX
  5
F4
330
E4
100
AcDbEntity
  8
LAY-1
  6
CONTINUOUS
 62
     3
100
AcDbVertex
100
AcDb2dVertex
 10
98.70831687717094
 20
97.8564075731197
 30
0.0
  0
VERTEX
  5
F5
330
E4
100
AcDbEntity
  8
LAY-1
  6
CONTINUOUS
 62
     3
100
AcDbVertex
100
AcDb2dVertex
 10
99.1479764695707
 20
98.44058757814022
 30
0.0
  0
VERTEX
  5
F6
330
E4
100
AcDbEntity
  8
LAY-1
  6
CONTINUOUS
 62
     3
100
AcDbVertex
100
AcDb2dVertex
 10
99.59548355775689
 20
98.97658262663919
 30
0.0
  0
VERTEX
  5
F7
330
E4
100
AcDbEntity
  8
LAY-1
  6
CONTINUOUS
 62
     3
100
AcDbVertex
100
AcDb2dVertex
 10
100.0522458150014
 20
99.46628461800773
 30
0.0
  0
VERTEX
  5
F8
330
E4
100
AcDbEntity
  8
LAY-1
  6
CONTINUOUS
 62
     3
100
AcDbVertex
100
AcDb2dVertex
 10
100.5196709145762
 20
99.91158545163697
 30
0.0
  0
VERTEX
  5
F9
330
E4
100
AcDbEntity
  8
LAY-1
  6
CONTINUOUS
 62
     3
100
AcDbVertex
100
AcDb2dVertex
 10
100.999166529753
 20
100.314377026918
 30
0.0
  0
VERTEX
  5
FA
330
E4
100
AcDbEntity
  8
LAY-1
  6
CONTINUOUS
 62
     3
100
AcDbVertex
100
AcDb2dVertex
 10
101.4921403338036
 20
100.676551243242
 30
0.0
  0
VERTEX
  5
FB
330
E4
100
AcDbEntity
  8
LAY-1
  6
CONTINUOUS
 62
     3
100
AcDbVertex
100
AcDb2dVertex
 10
102.0
 20
101.0
 30
0.0
  0
VERTEX
  5
FC
330
E4
100
AcDbEntity
  8
LAY-1
  6
CONTINUOUS
 62
     3
100
AcDbVertex
100
AcDb2dVertex
 10
103.3098142989209
 20
101.6375364723061
 30
0.0
  0
VERTEX
  5
FD
330
E4
100
AcDbEntity
  8
LAY-1
  6
CONTINUOUS
 62
     3
100
AcDbVertex
100
AcDb2dVertex
 10
104.7136220982851
 20
102.0688070627607
 30
0.0
  0
VERTEX
  5
FE
330
E4
100
AcDbEntity
  8
LAY-1
  6
CONTINUOUS
 62
     3
100
AcDbVertex
100
AcDb2dVertex
 10
106.2079227931682
 20
102.307943421706
 30
0.0
  0
VERTEX
  5
FF
330
E4
100
AcDbEntity
  8
LAY-1
  6
CONTINUOUS
 62
     3
100
AcDbVertex
100
AcDb2dVertex
 10
107.7892157786458
 20
102.3690771994842
 30
0.0
  0
VERTEX
  5
100
330
E4
100
AcDbEntity
  8
LAY-1
  6
CONTINUOUS
 62
     3
100
AcDbVertex
100
AcDb2dVertex
 10
109.4540004497939
 20
102.2663400464375
 30
0.0
  0
VERTEX
  5
101
330
E4
100
AcDbEntity
  8
LAY-1
  6
CONTINUOUS
 62
     3
100
AcDbVertex
100
AcDb2dVertex
 10
111.198776201688
 20
102.0138636129082
 30
0.0
  0
VERTEX
  5
102
330
E4
100
AcDbEntity
  8
LAY-1
  6
CONTINUOUS
 62
     3
100
AcDbVertex
100
AcDb2dVertex
 10
113.0200424294039
 20
101.6257795492385
 30
0.0
  0
VERTEX
  5
103
330
E4
100
AcDbEntity
  8
LAY-1
  6
CONTINUOUS
 62
     3
100
AcDbVertex
100
AcDb2dVertex
 10
114.9142985280173
 20
101.1162195057706
 30
0.0
  0
VERTEX
  5
104
330
E4
100
AcDbEntity
  8
LAY-1
  6
CONTINUOUS
 62
     3
100
AcDbVertex
100
AcDb2dVertex
 10
116.878043892604
 20
100.4993151328467
 30
0.0
  0
VERTEX
  5
105
330
E4
100
AcDbEntity
  8
LAY-1
  6
CONTINUOUS
 62
     3
100
AcDbVertex
100
AcDb2dVertex
 10
118.9077779182396
 20
99.78919808080911
 30
0.0
  0
VERTEX
  5
106
330
E4
100
AcDbEntity
  8
LAY-1
  6
CONTINUOUS
 62
     3
100
AcDbVertex
100
AcDb2dVertex
 10
121.0
 20
99.0
 30
0.0
  0
VERTEX
  5
107
330
E4
100
AcDbEntity
  8
LAY-1
  6
CONTINUOUS
 62
     3
100
AcDbVertex
100
AcDb2dVertex
 10
124.234506195357
 20
97.69976623445937
 30
0.0
  0
VERTEX
  5
108
330
E4
100
AcDbEntity
  8
LAY-1
  6
CONTINUOUS
 62
     3
100
AcDbVertex
100
AcDb2dVertex
 10
127.5248587141643
 20
96.30056344858451
 30
0.0
  0
VERTEX
  5
109
330
E4
100
AcDbEntity
  8
LAY-1
  6
CONTINUOUS
 62
     3
100
AcDbVertex
100
AcDb2dVertex
 10
130.7943841264904
 20
94.84933629412893
 30
0.0
  0
VERTEX
  5
10A
330
E4
100
AcDbEntity
  8
LAY-1
  6
CONTINUOUS
 62
     3
100
AcDbVertex
100
AcDb2dVertex
 10
133.9664090024038
 20
93.39302942284614
 30
0.0
  0
VERTEX
  5
10B
330
E4
100
AcDbEntity
  8
LAY-1
  6
CONTINUOUS
 62
     3
100
AcDbVertex
100
AcDb2dVertex
 10
136.9642599119732
 20
91.97858748648969
 30
0.0
  0
VERTEX
  5
10C
330
E4
100
AcDbEntity
  8
LAY-1
  6
CONTINUOUS
 62
     3
100
AcDbVertex
100
AcDb2dVertex
 10
139.7112634252669
 20
90.65295513681302
 30
0.0
  0
VERTEX
  5
10D
330
E4
100
AcDbEntity
  8
LAY-1
  6
CONTINUOUS
 62
     3
100
AcDbVertex
100
AcDb2dVertex
 10
142.1307461123535
 20
89.4630770255697
 30
0.0
  0
VERTEX
  5
10E
330
E4
100
AcDbEntity
  8
LAY-1
  6
CONTINUOUS
 62
     3
100
AcDbVertex
100
AcDb2dVertex
 10
144.1460345433017
 20
88.45589780451321
 30
0.0
  0
VERTEX
  5
10F
330
E4
100
AcDbEntity
  8
LAY-1
  6
CONTINUOUS
 62
     3
100
AcDbVertex
100
AcDb2dVertex
 10
145.6804552881798
 20
87.6783621253971
 30
0.0
  0
VERTEX
  5
110
330
E4
100
AcDbEntity
  8
LAY-1
  6
CONTINUOUS
 62
     3
100
AcDbVertex
100
AcDb2dVertex
 10
146.6573349170564
 20
87.17741463997487
 30
0.0
  0
VERTEX
  5
111
330
E4
100
AcDbEntity
  8
LAY-1
  6
CONTINUOUS
 62
     3
100
AcDbVertex
100
AcDb2dVertex
 10
147.0
 20
87.0
 30
0.0
  0
SEQEND
  5
112
330
E4
100
AcDbEntity
  8
LAY-1
  6
CONTINUOUS
 62
     3
  0
LINE
  5
113
330
1F
100
AcDbEntity
  8
LAY-1
  6
CONTINUOUS
 62
     3
100
AcDbLine
 10
72.99999999999932
 20
85.0
 30
0.0
 11
72.99999999999932
 21
119.0
 31
0.0
  0
LINE
  5
114
330
1F
100
AcDbEntity
  8
LAY-1
  6
CONTINUOUS
 62
     3
100
AcDbLine
 10
90.99999999999955
 20
119.0
 30
0.0
 11
90.99999999999955
 21
85.0
 31
0.0
  0
ARC
  5
115
330
1F
100
AcDbEntity
  8
LAY-1
  6
CONTINUOUS
 62
     3
100
AcDbCircle
 10
93.87298334620664
 20
118.4999999999998
 30
0.0
 40
3.000000000000002
100
AcDbArc
 50
196.7321468083782
 51
270.0000000000002
  0
ARC
  5
116
330
1F
100
AcDbEntity
  8
LAY-1
  6
CONTINUOUS
 62
     3
100
AcDbCircle
 10
92.85996176599701
 20
83.70346308856256
 30
0.0
 40
3.000000000000002
100
AcDbArc
 50
31.44190763823398
 51
128.3152037965193
  0
LINE
  5
117
330
1F
100
AcDbEntity
  8
LAY-1
  6
CONTINUOUS
 62
     3
100
AcDbLine
 10
73.0000000000029
 20
118.9999999999984
 30
0.0
 11
74.5183787571151
 21
121.62990915245
 31
0.0
  0
LINE
  5
118
330
1F
100
AcDbEntity
  8
LAY-1
  6
CONTINUOUS
 62
     3
100
AcDbLine
 10
91.00000000000028
 20
84.99999999999983
 30
0.0
 11
89.4816212428891
 21
82.37009084754999
 31
0.0
  0
LINE
  5
119
330
1F
100
AcDbEntity
  8
LAY-1
  6
CONTINUOUS
 62
     3
100
AcDbLine
 10
91.00000000000028
 20
119.0000000000002
 30
0.0
 11
89.4816212428891
 21
121.62990915245
 31
0.0
  0
LINE
  5
11A
330
1F
100
AcDbEntity
  8
LAY-1
  6
CONTINUOUS
 62
     3
100
AcDbLine
 10
73.0000000000029
 20
85.0000000000017
 30
0.0
 11
74.51837875711516
 21
82.37009084754999
 31
0.0
  0
LINE
  5
11B
330
1F
100
AcDbEntity
  8
LAY-1
  6
CONTINUOUS
 62
     3
100
AcDbLine
 10
74.5183787571151
 20
121.62990915245
 30
0.0
 11
89.4816212428891
 21
121.62990915245
 31
0.0
  0
LINE
  5
11C
330
1F
100
AcDbEntity
  8
LAY-1
  6
CONTINUOUS
 62
     3
100
AcDbLine
 10
74.51837875711516
 20
82.37009084754999
 30
0.0
 11
89.4816212428891
 21
82.37009084754999
 31
0.0
  0
ARC
  5
11D
330
1F
100
AcDbEntity
  8
LAY-1
  6
CONTINUOUS
 62
     3
100
AcDbCircle
 10
82.31020265535233
 20
116.722431864335
 30
0.0
 40
8.689797344647674
100
AcDbArc
 50
325.615752531973
 51
25.61575253190379
  0
ARC
  5
11E
330
1F
100
AcDbEntity
  8
LAY-1
  6
CONTINUOUS
 62
     3
100
AcDbCircle
 10
81.68979734461652
 20
116.72243186434
 30
0.0
 40
8.689797344616522
100
AcDbArc
 50
154.3842474682735
 51
214.3842474682075
  0
LINE
  5
11F
330
1F
100
AcDbEntity
  8
LAY-1
  6
CONTINUOUS
 62
     3
100
AcDbLine
 10
74.51837875711999
 20
111.81495457622
 30
0.0
 11
89.48162124289001
 21
111.81495457622
 31
0.0
  0
LINE
  5
120
330
1F
100
AcDbEntity
  8
LAY-1
  6
CONTINUOUS
 62
     3
100
AcDbLine
 10
74.51837875711999
 20
92.18504542377954
 30
0.0
 11
89.48162124289001
 21
92.18504542377954
 31
0.0
  0
ARC
  5
121
330
1F
100
AcDbEntity
  8
LAY-1
  6
CONTINUOUS
 62
     3
100
AcDbCircle
 10
82.31020265535233
 20
87.27756813566452
 30
0.0
 40
8.689797344647674
100
AcDbArc
 50
334.3842474680962
 51
34.38424746802695
  0
ARC
  5
122
330
1F
100
AcDbEntity
  8
LAY-1
  6
CONTINUOUS
 62
     3
100
AcDbCircle
 10
81.68979734461652
 20
87.27756813565955
 30
0.0
 40
8.689797344616522
100
AcDbArc
 50
145.6157525317925
 51
205.6157525317266
  0
LINE
  5
123
330
1F
100
AcDbEntity
  8
LAY-1
  6
CONTINUOUS
 62
     3
100
AcDbLine
 10
73.0000000000029
 20
85.0000000000012
 30
0.0
 11
74.5183787571151
 21
82.37009084754953
 31
0.0
  0
LINE
  5
124
330
1F
100
AcDbEntity
  8
LAY-1
  6
CONTINUOUS
 62
     3
100
AcDbLine
 10
91.00000000000028
 20
84.99999999999937
 30
0.0
 11
89.4816212428891
 21
82.37009084754953
 31
0.0
  0
LINE
  5
125
330
1F
100
AcDbEntity
  8
LAY-1
  6
CONTINUOUS
 62
     3
100
AcDbLine
 10
74.5183787571151
 20
82.37009084754953
 30
0.0
 11
89.4816212428891
 21
82.37009084754953
 31
0.0
  0
ARC
  5
126
330
1F
100
AcDbEntity
  8
LAY-1
  6
CONTINUOUS
 62
     3
100
AcDbCircle
 10
105.4816212426567
 20
102.0
 30
0.0
 40
32.48162124265668
100
AcDbArc
 50
162.4120462258823
 51
197.5879537741178
  0
ARC
  5
127
330
1F
100
AcDbEntity
  8
LAY-1
  6
CONTINUOUS
 62
     3
100
AcDbCircle
 10
58.51837875713932
 20
102.0
 30
0.0
 40
32.4816212428607
100
AcDbArc
 50
342.4120462259964
 51
17.58795377400363
  0
LINE
  5
128
330
1F
100
AcDbEntity
  8
LAY-1
  6
CONTINUOUS
 62
     3
100
AcDbLine
 10
172.9999999999994
 20
85.0
 30
0.0
 11
172.9999999999994
 21
119.0
 31
0.0
  0
LINE
  5
129
330
1F
100
AcDbEntity
  8
LAY-1
  6
CONTINUOUS
 62
     3
100
AcDbLine
 10
172.9999999999959
 20
118.9999999999984
 30
0.0
 11
171.4816212428836
 21
121.62990915245
 31
0.0
  0
LINE
  5
12A
330
1F
100
AcDbEntity
  8
LAY-1
  6
CONTINUOUS
 62
     3
100
AcDbLine
 10
172.9999999999959
 20
85.0000000000017
 30
0.0
 11
171.4816212428836
 21
82.37009084754999
 31
0.0
  0
ARC
  5
12B
330
1F
100
AcDbEntity
  8
LAY-1
  6
CONTINUOUS
 62
     3
100
AcDbCircle
 10
164.3102026553822
 20
116.72243186434
 30
0.0
 40
8.689797344616522
100
AcDbArc
 50
325.6157525317925
 51
25.61575253172658
  0
ARC
  5
12C
330
1F
100
AcDbEntity
  8
LAY-1
  6
CONTINUOUS
 62
     3
100
AcDbCircle
 10
164.3102026553822
 20
87.27756813565955
 30
0.0
 40
8.689797344616522
100
AcDbArc
 50
334.3842474682736
 51
34.38424746820755
  0
LINE
  5
12D
330
1F
100
AcDbEntity
  8
LAY-1
  6
CONTINUOUS
 62
     3
100
AcDbLine
 10
172.9999999999959
 20
85.0000000000012
 30
0.0
 11
171.4816212428836
 21
82.37009084754953
 31
0.0
  0
ARC
  5
12E
330
1F
100
AcDbEntity
  8
LAY-1
  6
CONTINUOUS
 62
     3
100
AcDbCircle
 10
140.5183787573421
 20
102.0
 30
0.0
 40
32.48162124265668
100
AcDbArc
 50
342.4120462258824
 51
17.58795377411765
  0
LINE
  5
12F
330
1F
100
AcDbEntity
  8
LAY-1
  6
CONTINUOUS
 62
     3
100
AcDbLine
 10
171.4816212428836
 20
82.37009084754953
 30
0.0
 11
156.5183787571096
 21
82.37009084754953
 31
0.0
  0
LINE
  5
130
330
1F
100
AcDbEntity
  8
LAY-1
  6
CONTINUOUS
 62
     3
100
AcDbLine
 10
171.4816212428788
 20
92.18504542377954
 30
0.0
 11
156.5183787571087
 21
92.18504542377954
 31
0.0
  0
LINE
  5
131
330
1F
100
AcDbEntity
  8
LAY-1
  6
CONTINUOUS
 62
     3
100
AcDbLine
 10
171.4816212428788
 20
111.81495457622
 30
0.0
 11
156.5183787571087
 21
111.81495457622
 31
0.0
  0
LINE
  5
132
330
1F
100
AcDbEntity
  8
LAY-1
  6
CONTINUOUS
 62
     3
100
AcDbLine
 10
171.4816212428836
 20
121.62990915245
 30
0.0
 11
156.5183787571096
 21
121.62990915245
 31
0.0
  0
ARC
  5
133
330
1F
100
AcDbEntity
  8
LAY-1
  6
CONTINUOUS
 62
     3
100
AcDbCircle
 10
187.4816212428594
 20
102.0
 30
0.0
 40
32.4816212428607
100
AcDbArc
 50
162.4120462259964
 51
197.5879537740036
  0
ARC
  5
134
330
1F
100
AcDbEntity
  8
LAY-1
  6
CONTINUOUS
 62
     3
100
AcDbCircle
 10
163.6897973446464
 20
116.722431864335
 30
0.0
 40
8.689797344647674
100
AcDbArc
 50
154.3842474680963
 51
214.384247468027
  0
ARC
  5
135
330
1F
100
AcDbEntity
  8
LAY-1
  6
CONTINUOUS
 62
     3
100
AcDbCircle
 10
163.6897973446464
 20
87.27756813566452
 30
0.0
 40
8.689797344647674
100
AcDbArc
 50
145.6157525319731
 51
205.6157525319037
  0
LINE
  5
136
330
1F
100
AcDbEntity
  8
LAY-1
  6
CONTINUOUS
 62
     3
100
AcDbLine
 10
154.9999999999985
 20
84.99999999999937
 30
0.0
 11
156.5183787571096
 21
82.37009084754953
 31
0.0
  0
LINE
  5
137
330
1F
100
AcDbEntity
  8
LAY-1
  6
CONTINUOUS
 62
     3
100
AcDbLine
 10
154.9999999999985
 20
119.0000000000002
 30
0.0
 11
156.5183787571096
 21
121.62990915245
 31
0.0
  0
LINE
  5
138
330
1F
100
AcDbEntity
  8
LAY-1
  6
CONTINUOUS
 62
     3
100
AcDbLine
 10
154.9999999999993
 20
119.0
 30
0.0
 11
154.9999999999993
 21
85.0
 31
0.0
  0
ARC
  5
139
330
1F
100
AcDbEntity
  8
LAY-1
  6
CONTINUOUS
 62
     3
100
AcDbCircle
 10
152.1270166537919
 20
85.49999999999972
 30
0.0
 40
3.000000000000002
100
AcDbArc
 50
16.73214680835538
 51
90.00000000000001
  0
ARC
  5
13A
330
1F
100
AcDbEntity
  8
LAY-1
  6
CONTINUOUS
 62
     3
100
AcDbCircle
 10
152.127016653792
 20
118.4999999999997
 30
0.0
 40
3.000000000000002
100
AcDbArc
 50
270.0000000000002
 51
343.2678531916367
  0
LINE
  5
13B
330
1F
100
AcDbEntity
  8
LAY-1
  6
EXLTYPE3
 62
     1
100
AcDbLine
 10
68.0
 20
101.9999999999998
 30
0.0
 11
177.0
 21
101.9999999999998
 31
0.0
  0
LINE
  5
13C
330
1F
100
AcDbEntity
  8
LAY-1
  6
CONTINUOUS
 62
     3
100
AcDbLine
 10
90.99999999999955
 20
117.9999999999998
 30
0.0
 11
154.9999999999993
 21
117.9999999999998
 31
0.0
  0
LINE
  5
13D
330
1F
100
AcDbEntity
  8
LAY-1
  6
CONTINUOUS
 62
     3
100
AcDbLine
 10
164.0632006071683
 20
50.73475836397391
 30
0.0
 11
159.1642211215936
 21
55.63373784954855
 31
0.0
  0
ARC
  5
13E
330
1F
100
AcDbEntity
  8
LAY-1
  6
CONTINUOUS
 62
     3
100
AcDbCircle
 10
162.9331900812555
 20
56.76374837543636
 30
0.0
 40
6.133974596213156
100
AcDbArc
 50
280.615752532092
 51
340.6157525324975
  0
LINE
  5
13F
330
1F
100
AcDbEntity
  8
LAY-1
  6
CONTINUOUS
 62
     3
100
AcDbLine
 10
164.0632006071528
 20
60.53271733510772
 30
0.0
 11
168.9621800927248
 21
55.63373784953572
 31
0.0
  0
LINE
  5
140
330
1F
100
AcDbEntity
  8
LAY-1
  6
CONTINUOUS
 62
     3
100
AcDbLine
 10
159.9220958855165
 20
45.07790411448681
 30
0.0
 11
168.4073772597625
 21
53.56318548873279
 31
0.0
  0
LINE
  5
141
330
1F
100
AcDbEntity
  8
LAY-1
  6
CONTINUOUS
 62
     3
100
AcDbLine
 10
168.4073772597616
 20
53.56318548873377
 30
0.0
 11
168.9621800927248
 21
55.63373784953572
 31
0.0
  0
ARC
  5
142
330
1F
100
AcDbEntity
  8
LAY-1
  6
CONTINUOUS
 62
     3
100
AcDbCircle
 10
143.7094079009001
 20
61.29059209912478
 30
0.0
 40
22.92820323038741
100
AcDbArc
 50
315.0000000000001
 51
332.5879537738802
  0
LINE
  5
143
330
1F
100
AcDbEntity
  8
LAY-1
  6
CONTINUOUS
 62
     3
100
AcDbLine
 10
164.0632006071528
 20
60.53271733510772
 30
0.0
 11
154.2652416360241
 21
50.73475836397895
 31
0.0
  0
LINE
  5
144
330
1F
100
AcDbEntity
  8
LAY-1
  6
CONTINUOUS
 62
     3
100
AcDbLine
 10
165.4021734397132
 20
63.28590373004119
 30
0.0
 11
164.0632006071531
 21
60.53271733511107
 31
0.0
  0
LINE
  5
145
330
1F
100
AcDbEntity
  8
LAY-1
  6
CONTINUOUS
 62
     3
100
AcDbLine
 10
165.4021734397132
 20
63.28590373004119
 30
0.0
 11
153.5581348548375
 21
51.44186514516552
 31
0.0
  0
LINE
  5
146
330
1F
100
AcDbEntity
  8
LAY-1
  6
CONTINUOUS
 62
     3
100
AcDbLine
 10
162.2201929243725
 20
66.46788424538002
 30
0.0
 11
165.4021734397084
 21
63.28590373004408
 31
0.0
  0
LINE
  5
147
330
1F
100
AcDbEntity
  8
LAY-1
  6
CONTINUOUS
 62
     3
100
AcDbLine
 10
150.3761543395001
 20
54.62384566050295
 30
0.0
 11
162.2201929243749
 21
66.46788424537789
 31
0.0
  0
LINE
  5
148
330
1F
100
AcDbEntity
  8
LAY-1
  6
CONTINUOUS
 62
     3
100
AcDbLine
 10
154.2652416360291
 20
40.93679939283466
 30
0.0
 11
149.3662621504544
 21
45.83577887840939
 31
0.0
  0
ARC
  5
149
330
1F
100
AcDbEntity
  8
LAY-1
  6
CONTINUOUS
 62
     3
100
AcDbCircle
 10
148.2362516245666
 20
42.06680991874751
 30
0.0
 40
6.133974596213156
100
AcDbArc
 50
289.3842474675025
 51
349.3842474679081
  0
LINE
  5
14A
330
1F
100
AcDbEntity
  8
LAY-1
  6
CONTINUOUS
 62
     3
100
AcDbLine
 10
144.4672826648953
 20
40.9367993928502
 30
0.0
 11
149.3662621504673
 21
36.03781990727821
 31
0.0
  0
LINE
  5
14B
330
1F
100
AcDbEntity
  8
LAY-1
  6
CONTINUOUS
 62
     3
100
AcDbLine
 10
159.9220958855162
 20
45.07790411448649
 30
0.0
 11
151.4368145112702
 21
36.59262274024046
 31
0.0
  0
LINE
  5
14C
330
1F
100
AcDbEntity
  8
LAY-1
  6
CONTINUOUS
 62
     3
100
AcDbLine
 10
151.4368145112692
 20
36.59262274024144
 30
0.0
 11
149.3662621504673
 21
36.03781990727821
 31
0.0
  0
ARC
  5
14D
330
1F
100
AcDbEntity
  8
LAY-1
  6
CONTINUOUS
 62
     3
100
AcDbCircle
 10
143.7094079008782
 20
61.29059209910292
 30
0.0
 40
22.92820323038741
100
AcDbArc
 50
297.4120462261199
 51
315.0000000000001
  0
LINE
  5
14E
330
1F
100
AcDbEntity
  8
LAY-1
  6
CONTINUOUS
 62
     3
100
AcDbLine
 10
144.4672826648953
 20
40.9367993928502
 30
0.0
 11
154.2652416360241
 21
50.73475836397895
 31
0.0
  0
LINE
  5
14F
330
1F
100
AcDbEntity
  8
LAY-1
  6
CONTINUOUS
 62
     3
100
AcDbLine
 10
141.7140962699618
 20
39.59782656028985
 30
0.0
 11
144.4672826648919
 21
40.93679939284993
 31
0.0
  0
LINE
  5
150
330
1F
100
AcDbEntity
  8
LAY-1
  6
CONTINUOUS
 62
     3
100
AcDbLine
 10
141.7140962699618
 20
39.59782656028985
 30
0.0
 11
153.5581348548375
 21
51.44186514516552
 31
0.0
  0
LINE
  5
151
330
1F
100
AcDbEntity
  8
LAY-1
  6
CONTINUOUS
 62
     3
100
AcDbLine
 10
138.532115754623
 20
42.77980707563052
 30
0.0
 11
141.7140962699589
 21
39.59782656029459
 31
0.0
  0
LINE
  5
152
330
1F
100
AcDbEntity
  8
LAY-1
  6
CONTINUOUS
 62
     3
100
AcDbLine
 10
150.3761543395001
 20
54.62384566050295
 30
0.0
 11
138.5321157546251
 21
42.77980707562814
 31
0.0
  0
LINE
  5
153
330
1F
100
AcDbEntity
  8
LAY-1
  6
EXLTYPE3
 62
     1
100
AcDbLine
 10
102.9999999999998
 20
102.0000000000002
 30
0.0
 11
162.4999999999997
 21
42.49999999999973
 31
0.0
  0
LINE
  5
154
330
1F
100
AcDbEntity
  8
LAY-1
  6
EXLTYPE3
 62
     1
100
AcDbLine
 10
68.0
 20
200.9999999999998
 30
0.0
 11
177.0
 21
200.9999999999998
 31
0.0
  0
LINE
  5
155
330
1F
100
AcDbEntity
  8
LAY-1
  6
CONTINUOUS
 62
     3
100
AcDbLine
 10
173.0
 20
200.9999999999998
 30
0.0
 11
173.0
 21
217.9999999999998
 31
0.0
  0
LINE
  5
156
330
1F
100
AcDbEntity
  8
LAY-1
  6
CONTINUOUS
 62
     3
100
AcDbLine
 10
155.0
 20
200.9999999999998
 30
0.0
 11
155.0
 21
217.9999999999997
 31
0.0
  0
ARC
  5
157
330
1F
100
AcDbEntity
  8
LAY-1
  6
CONTINUOUS
 62
     3
100
AcDbCircle
 10
179.5510132768016
 20
209.5
 30
0.0
 40
24.55101327680157
100
AcDbArc
 50
159.7438419995795
 51
200.2561580004206
  0
ARC
  5
158
330
1F
100
AcDbEntity
  8
LAY-1
  6
CONTINUOUS
 62
     3
100
AcDbCircle
 10
148.4489867233497
 20
209.5
 30
0.0
 40
24.55101327665028
100
AcDbArc
 50
339.7438419994492
 51
20.25615800055087
  0
LINE
  5
159
330
1F
100
AcDbEntity
  8
LAY-1
  6
CONTINUOUS
 62
     3
100
AcDbLine
 10
156.51837875711
 20
201.0
 30
0.0
 11
171.48162124288
 21
201.0
 31
0.0
  0
LINE
  5
15A
330
1F
100
AcDbEntity
  8
LAY-1
  6
CONTINUOUS
 62
     3
100
AcDbLine
 10
173.0
 20
217.9999999999998
 30
0.0
 11
155.0
 21
217.9999999999998
 31
0.0
  0
LINE
  5
15B
330
1F
100
AcDbEntity
  8
LAY-1
  6
CONTINUOUS
 62
     3
100
AcDbLine
 10
155.0
 20
200.9999999999998
 30
0.0
 11
155.0
 21
183.9999999999999
 31
0.0
  0
LINE
  5
15C
330
1F
100
AcDbEntity
  8
LAY-1
  6
CONTINUOUS
 62
     3
100
AcDbLine
 10
173.0
 20
200.9999999999998
 30
0.0
 11
173.0
 21
183.9999999999998
 31
0.0
  0
ARC
  5
15D
330
1F
100
AcDbEntity
  8
LAY-1
  6
CONTINUOUS
 62
     3
100
AcDbCircle
 10
148.4489867233497
 20
192.4999999999996
 30
0.0
 40
24.55101327665028
100
AcDbArc
 50
339.7438419994492
 51
20.25615800055087
  0
ARC
  5
15E
330
1F
100
AcDbEntity
  8
LAY-1
  6
CONTINUOUS
 62
     3
100
AcDbCircle
 10
179.5510132768016
 20
192.4999999999996
 30
0.0
 40
24.55101327680157
100
AcDbArc
 50
159.7438419995795
 51
200.2561580004206
  0
LINE
  5
15F
330
1F
100
AcDbEntity
  8
LAY-1
  6
CONTINUOUS
 62
     3
100
AcDbLine
 10
173.0
 20
183.9999999999998
 30
0.0
 11
155.0
 21
183.9999999999998
 31
0.0
  0
LINE
  5
160
330
1F
100
AcDbEntity
  8
LAY-1
  6
CONTINUOUS
 62
     3
100
AcDbLine
 10
72.99999999999898
 20
201.0000000000002
 30
0.0
 11
72.99999999999903
 21
184.0000000000002
 31
0.0
  0
LINE
  5
161
330
1F
100
AcDbEntity
  8
LAY-1
  6
CONTINUOUS
 62
     3
100
AcDbLine
 10
90.99999999999902
 20
201.0000000000002
 30
0.0
 11
90.99999999999905
 21
184.0000000000003
 31
0.0
  0
ARC
  5
162
330
1F
100
AcDbEntity
  8
LAY-1
  6
CONTINUOUS
 62
     3
100
AcDbCircle
 10
66.44898672319744
 20
192.5
 30
0.0
 40
24.55101327680157
100
AcDbArc
 50
339.7438419995795
 51
20.25615800042058
  0
ARC
  5
163
330
1F
100
AcDbEntity
  8
LAY-1
  6
CONTINUOUS
 62
     3
100
AcDbCircle
 10
97.5510132766493
 20
192.5
 30
0.0
 40
24.55101327665028
100
AcDbArc
 50
159.7438419994492
 51
200.2561580005508
  0
LINE
  5
164
330
1F
100
AcDbEntity
  8
LAY-1
  6
CONTINUOUS
 62
     3
100
AcDbLine
 10
89.481621242889
 20
201.0
 30
0.0
 11
74.51837875711902
 21
201.0
 31
0.0
  0
LINE
  5
165
330
1F
100
AcDbEntity
  8
LAY-1
  6
CONTINUOUS
 62
     3
100
AcDbLine
 10
72.99999999999903
 20
184.0000000000002
 30
0.0
 11
90.99999999999905
 21
184.0000000000002
 31
0.0
  0
LINE
  5
166
330
1F
100
AcDbEntity
  8
LAY-1
  6
CONTINUOUS
 62
     3
100
AcDbLine
 10
90.99999999999902
 20
201.0000000000002
 30
0.0
 11
90.99999999999902
 21
218.0000000000001
 31
0.0
  0
LINE
  5
167
330
1F
100
AcDbEntity
  8
LAY-1
  6
CONTINUOUS
 62
     3
100
AcDbLine
 10
72.99999999999898
 20
201.0000000000002
 30
0.0
 11
72.99999999999903
 21
218.0000000000002
 31
0.0
  0
ARC
  5
168
330
1F
100
AcDbEntity
  8
LAY-1
  6
CONTINUOUS
 62
     3
100
AcDbCircle
 10
97.5510132766493
 20
209.5000000000004
 30
0.0
 40
24.55101327665028
100
AcDbArc
 50
159.7438419994492
 51
200.2561580005508
  0
ARC
  5
169
330
1F
100
AcDbEntity
  8
LAY-1
  6
CONTINUOUS
 62
     3
100
AcDbCircle
 10
66.44898672319744
 20
209.5000000000004
 30
0.0
 40
24.55101327680157
100
AcDbArc
 50
339.7438419995795
 51
20.25615800042058
  0
LINE
  5
16A
330
1F
100
AcDbEntity
  8
LAY-1
  6
CONTINUOUS
 62
     3
100
AcDbLine
 10
72.99999999999903
 20
218.0000000000002
 30
0.0
 11
90.99999999999902
 21
218.0000000000002
 31
0.0
  0
LINE
  5
16B
330
1F
100
AcDbEntity
  8
LAY-1
  6
CONTINUOUS
 62
     3
100
AcDbLine
 10
90.99999999999902
 20
206.9999999999998
 30
0.0
 11
155.0
 21
206.9999999999999
 31
0.0
  0
LINE
  5
16C
330
1F
100
AcDbEntity
  8
LAY-1
  6
CONTINUOUS
 62
     3
100
AcDbLine
 10
90.99999999999902
 20
194.9999999999998
 30
0.0
 11
155.0
 21
194.9999999999997
 31
0.0
  0
ARC
  5
16D
330
1F
100
AcDbEntity
  8
LAY-1
  6
CONTINUOUS
 62
     3
100
AcDbCircle
 10
93.99999999999902
 20
217.4999999999998
 30
0.0
 40
3.0
100
AcDbArc
 50
180.0
 51
270.0
  0
ARC
  5
16E
330
1F
100
AcDbEntity
  8
LAY-1
  6
CONTINUOUS
 62
     3
100
AcDbCircle
 10
152.0
 20
217.4999999999998
 30
0.0
 40
3.0
100
AcDbArc
 50
270.0
 51
0.0
  0
LINE
  5
16F
330
1F
100
AcDbEntity
  8
LAY-1
  6
CONTINUOUS
 62
     3
100
AcDbLine
 10
152.0
 20
214.4999999999998
 30
0.0
 11
93.99999999999902
 21
214.4999999999998
 31
0.0
  0
ARC
  5
170
330
1F
100
AcDbEntity
  8
LAY-1
  6
CONTINUOUS
 62
     3
100
AcDbCircle
 10
152.0
 20
184.4999999999998
 30
0.0
 40
3.0
100
AcDbArc
 50
0.0
 51
90.00000000000001
  0
LINE
  5
171
330
1F
100
AcDbEntity
  8
LAY-1
  6
CONTINUOUS
 62
     3
100
AcDbLine
 10
152.0
 20
187.4999999999998
 30
0.0
 11
93.99999999999903
 21
187.4999999999998
 31
0.0
  0
ARC
  5
172
330
1F
100
AcDbEntity
  8
LAY-1
  6
CONTINUOUS
 62
     3
100
AcDbCircle
 10
93.99999999999903
 20
184.4999999999998
 30
0.0
 40
3.0
100
AcDbArc
 50
90.00000000000001
 51
180.0
  0
ELLIPSE
  5
173
330
1F
100
AcDbEntity
  8
LAY-1
  6
CONTINUOUS
 62
     3
100
AcDbEllipse
 10
141.02321536902
 20
201.0
 30
0.0
 11
-6.650606686906007E-15
 21
17.37100000000001
 31
0.0
210
0.0
220
0.0
230
1.0
 40
0.7070919280415632
 41
5.602524965778654
 42
6.283185307179586
  0
ARC
  5
174
330
1F
100
AcDbEntity
  8
LAY-1
  6
CONTINUOUS
 62
     3
100
AcDbCircle
 10
109.9019490961396
 20
203.5764499246829
 30
0.0
 40
14.48247886356263
100
AcDbArc
 50
113.0453566628252
 51
131.0392745567154
  0
ARC
  5
175
330
1F
100
AcDbEntity
  8
LAY-1
  6
CONTINUOUS
 62
     3
100
AcDbCircle
 10
124.5639960695952
 20
169.110715479122
 30
0.0
 40
51.93728459425281
100
AcDbArc
 50
71.52410503104944
 51
113.0453566628432
  0
ELLIPSE
  5
176
330
1F
100
AcDbEntity
  8
LAY-1
  6
CONTINUOUS
 62
     3
100
AcDbEllipse
 10
141.89087296525
 20
201.0
 30
0.0
 11
-3.398394867633905E-15
 21
-18.5
 31
0.0
210
0.0
220
0.0
230
1.0
 40
0.7071067811870264
 41
2.388722909293051
 42
3.369690538921958
  0
LINE
  5
177
330
1F
100
AcDbEntity
  8
LAY-1
  6
CONTINUOUS
 62
     3
100
AcDbLine
 10
141.89087296525
 20
219.4999999999997
 30
0.0
 11
150.37615433949
 21
219.4999999999997
 31
0.0
  0
ELLIPSE
  5
178
330
1F
100
AcDbEntity
  8
LAY-1
  6
CONTINUOUS
 62
     3
100
AcDbEllipse
 10
150.37615433949
 20
201.0
 30
0.0
 11
-3.398394867633905E-15
 21
-18.5
 31
0.0
210
0.0
220
0.0
230
1.0
 40
0.7071067811870264
 41
2.736127247543622
 42
3.141592653589794
  0
ARC
  5
179
330
1F
100
AcDbEntity
  8
LAY-1
  6
CONTINUOUS
 62
     3
100
AcDbCircle
 10
124.5639960695952
 20
232.8892845208776
 30
0.0
 40
51.93728459425281
100
AcDbArc
 50
246.9546433371568
 51
288.4758949689507
  0
ARC
  5
17A
330
1F
100
AcDbEntity
  8
LAY-1
  6
CONTINUOUS
 62
     3
100
AcDbCircle
 10
109.9019490961396
 20
198.4235500753167
 30
0.0
 40
14.48247886356263
100
AcDbArc
 50
228.9607254432846
 51
246.9546433371748
  0
ELLIPSE
  5
17B
330
1F
100
AcDbEntity
  8
LAY-1
  6
CONTINUOUS
 62
     3
100
AcDbEllipse
 10
141.02321536902
 20
200.9999999999996
 30
0.0
 11
-3.191000932198302E-15
 21
-17.37100000000001
 31
0.0
210
0.0
220
0.0
230
1.0
 40
0.7070919280415632
 41
0.0
 42
0.6806603414009359
  0
ELLIPSE
  5
17C
330
1F
100
AcDbEntity
  8
LAY-1
  6
CONTINUOUS
 62
     3
100
AcDbEllipse
 10
141.89087296525
 20
200.9999999999996
 30
0.0
 11
-7.082852093014857E-15
 21
18.5
 31
0.0
210
0.0
220
0.0
230
1.0
 40
0.7071067811870264
 41
2.913494768257627
 42
3.894462397886537
  0
LINE
  5
17D
330
1F
100
AcDbEntity
  8
LAY-1
  6
CONTINUOUS
 62
     3
100
AcDbLine
 10
141.89087296525
 20
182.4999999999998
 30
0.0
 11
150.37615433949
 21
182.4999999999999
 31
0.0
  0
ELLIPSE
  5
17E
330
1F
100
AcDbEntity
  8
LAY-1
  6
CONTINUOUS
 62
     3
100
AcDbEllipse
 10
150.37615433949
 20
200.9999999999996
 30
0.0
 11
-7.082852093014857E-15
 21
18.5
 31
0.0
210
0.0
220
0.0
230
1.0
 40
0.7071067811870264
 41
3.141592653589795
 42
3.547058059635966
  0
LINE
  5
17F
330
1F
100
AcDbEntity
  8
LAY-1
  6
EXLTYPE3
 62
     1
100
AcDbLine
 10
228.0
 20
102.0
 30
0.0
 11
268.0
 21
102.0
 31
0.0
  0
LINE
  5
180
330
1F
100
AcDbEntity
  8
LAY-1
  6
CONTINUOUS
 62
     3
100
AcDbLine
 10
247.9999999999962
 20
55.63373784953194
 30
0.0
 11
259.9999999999682
 21
50.73475836396054
 31
0.0
  0
LINE
  5
181
330
1F
100
AcDbEntity
  8
LAY-1
  6
CONTINUOUS
 62
     3
100
AcDbLine
 10
259.9999999999682
 20
50.73475836396054
 30
0.0
 11
259.9999999999682
 21
40.93679939284628
 31
0.0
  0
LINE
  5
182
330
1F
100
AcDbEntity
  8
LAY-1
  6
CONTINUOUS
 62
     3
100
AcDbLine
 10
247.9999999999949
 20
55.63373784953194
 30
0.0
 11
235.999999999992
 21
50.73475836397375
 31
0.0
  0
LINE
  5
183
330
1F
100
AcDbEntity
  8
LAY-1
  6
CONTINUOUS
 62
     3
100
AcDbLine
 10
235.999999999992
 20
50.73475836397375
 30
0.0
 11
235.999999999992
 21
40.93679939283423
 31
0.0
  0
LINE
  5
184
330
1F
100
AcDbEntity
  8
LAY-1
  6
CONTINUOUS
 62
     3
100
AcDbLine
 10
247.9999999999962
 20
60.53271733510894
 30
0.0
 11
259.9999999999682
 21
55.63373784953754
 31
0.0
  0
LINE
  5
185
330
1F
100
AcDbEntity
  8
LAY-1
  6
CONTINUOUS
 62
     3
100
AcDbLine
 10
247.9999999999949
 20
60.53271733510894
 30
0.0
 11
235.999999999992
 21
55.63373784955076
 31
0.0
  0
LINE
  5
186
330
1F
100
AcDbEntity
  8
LAY-1
  6
CONTINUOUS
 62
     3
100
AcDbLine
 10
235.99999999995
 20
55.633737849532
 30
0.0
 11
235.99999999995
 21
50.73475836397402
 31
0.0
  0
LINE
  5
187
330
1F
100
AcDbEntity
  8
LAY-1
  6
CONTINUOUS
 62
     3
100
AcDbLine
 10
260.0
 20
55.633737849525
 30
0.0
 11
260.0
 21
50.73475836397402
 31
0.0
  0
POLYLINE
  5
188
330
1F
100
AcDbEntity
  8
LAY-1
  6
CONTINUOUS
 62
     3
100
AcDb2dPolyline
 66
     1
 10
0.0
 20
0.0
 30
0.0
 70
   128
  0
VERTEX
  5
189
330
188
100
AcDbEntity
  8
LAY-1
  6
CONTINUOUS
 62
     3
100
AcDbVertex
100
AcDb2dVertex
 10
259.9999999999671
 20
45.07790411447658
 30
0.0
  0
VERTEX
  5
18A
330
188
100
AcDbEntity
  8
LAY-1
  6
CONTINUOUS
 62
     3
100
AcDbVertex
100
AcDb2dVertex
 10
259.9976868857522
 20
45.24450151942013
 30
0.0
  0
VERTEX
  5
18B
330
188
100
AcDbEntity
  8
LAY-1
  6
CONTINUOUS
 62
     3
100
AcDbVertex
100
AcDb2dVertex
 10
259.9907484348564
 20
45.41103469789275
 30
0.0
  0
VERTEX
  5
18C
330
188
100
AcDbEntity
  8
LAY-1
  6
CONTINUOUS
 62
     3
100
AcDbVertex
100
AcDb2dVertex
 10
259.9791873221847
 20
45.57743944818402
 30
0.0
  0
VERTEX
  5
18D
330
188
100
AcDbEntity
  8
LAY-1
  6
CONTINUOUS
 62
     3
100
AcDbVertex
100
AcDb2dVertex
 10
259.9630080047659
 20
45.74365161809509
 30
0.0
  0
VERTEX
  5
18E
330
188
100
AcDbEntity
  8
LAY-1
  6
CONTINUOUS
 62
     3
100
AcDbVertex
100
AcDb2dVertex
 10
259.9422167200352
 20
45.90960712967043
 30
0.0
  0
VERTEX
  5
18F
330
188
100
AcDbEntity
  8
LAY-1
  6
CONTINUOUS
 62
     3
100
AcDbVertex
100
AcDb2dVertex
 10
259.9168214834283
 20
46.07524200390123
 30
0.0
  0
VERTEX
  5
190
330
188
100
AcDbEntity
  8
LAY-1
  6
CONTINUOUS
 62
     3
100
AcDbVertex
100
AcDb2dVertex
 10
259.8868320852924
 20
46.24049238539048
 30
0.0
  0
VERTEX
  5
191
330
188
100
AcDbEntity
  8
LAY-1
  6
CONTINUOUS
 62
     3
100
AcDbVertex
100
AcDb2dVertex
 10
259.8522600871116
 20
46.40529456697043
 30
0.0
  0
VERTEX
  5
192
330
188
100
AcDbEntity
  8
LAY-1
  6
CONTINUOUS
 62
     3
100
AcDbVertex
100
AcDb2dVertex
 10
259.813118817049
 20
46.56958501426288
 30
0.0
  0
VERTEX
  5
193
330
188
100
AcDbEntity
  8
LAY-1
  6
CONTINUOUS
 62
     3
100
AcDbVertex
100
AcDb2dVertex
 10
259.7694233648095
 20
46.73330039017306
 30
0.0
  0
VERTEX
  5
194
330
188
100
AcDbEntity
  8
LAY-1
  6
CONTINUOUS
 62
     3
100
AcDbVertex
100
AcDb2dVertex
 10
259.7211905758217
 20
46.89637757930706
 30
0.0
  0
VERTEX
  5
195
330
188
100
AcDbEntity
  8
LAY-1
  6
CONTINUOUS
 62
     3
100
AcDbVertex
100
AcDb2dVertex
 10
259.6684390447438
 20
47.05875371230415
 30
0.0
  0
VERTEX
  5
196
330
188
100
AcDbEntity
  8
LAY-1
  6
CONTINUOUS
 62
     3
100
AcDbVertex
100
AcDb2dVertex
 10
259.6111891082953
 20
47.2203661900741
 30
0.0
  0
VERTEX
  5
197
330
188
100
AcDbEntity
  8
LAY-1
  6
CONTINUOUS
 62
     3
100
AcDbVertex
100
AcDb2dVertex
 10
259.5494628374164
 20
47.38115270793026
 30
0.0
  0
VERTEX
  5
198
330
188
100
AcDbEntity
  8
LAY-1
  6
CONTINUOUS
 62
     3
100
AcDbVertex
100
AcDb2dVertex
 10
259.4832840287596
 20
47.54105127960935
 30
0.0
  0
VERTEX
  5
199
330
188
100
AcDbEntity
  8
LAY-1
  6
CONTINUOUS
 62
     3
100
AcDbVertex
100
AcDb2dVertex
 10
259.4126781955155
 20
47.70000026116812
 30
0.0
  0
VERTEX
  5
19A
330
188
100
AcDbEntity
  8
LAY-1
  6
CONTINUOUS
 62
     3
100
AcDbVertex
100
AcDb2dVertex
 10
259.3376725575768
 20
47.85793837474848
 30
0.0
  0
VERTEX
  5
19B
330
188
100
AcDbEntity
  8
LAY-1
  6
CONTINUOUS
 62
     3
100
AcDbVertex
100
AcDb2dVertex
 10
259.2582960310446
 20
48.01480473220114
 30
0.0
  0
VERTEX
  5
19C
330
188
100
AcDbEntity
  8
LAY-1
  6
CONTINUOUS
 62
     3
100
AcDbVertex
100
AcDb2dVertex
 10
259.1745792170808
 20
48.17053885855923
 30
0.0
  0
VERTEX
  5
19D
330
188
100
AcDbEntity
  8
LAY-1
  6
CONTINUOUS
 62
     3
100
AcDbVertex
100
AcDb2dVertex
 10
259.0865543901112
 20
48.32508071535247
 30
0.0
  0
VERTEX
  5
19E
330
188
100
AcDbEntity
  8
LAY-1
  6
CONTINUOUS
 62
     3
100
AcDbVertex
100
AcDb2dVertex
 10
258.9942554853819
 20
48.47837072375327
 30
0.0
  0
VERTEX
  5
19F
330
188
100
AcDbEntity
  8
LAY-1
  6
CONTINUOUS
 62
     3
100
AcDbVertex
100
AcDb2dVertex
 10
258.8977180858778
 20
48.63034978754536
 30
0.0
  0
VERTEX
  5
1A0
330
188
100
AcDbEntity
  8
LAY-1
  6
CONTINUOUS
 62
     3
100
AcDbVertex
100
AcDb2dVertex
 10
258.7969794086041
 20
48.7809593159066
 30
0.0
  0
VERTEX
  5
1A1
330
188
100
AcDbEntity
  8
LAY-1
  6
CONTINUOUS
 62
     3
100
AcDbVertex
100
AcDb2dVertex
 10
258.6920782902384
 20
48.93014124599681
 30
0.0
  0
VERTEX
  5
1A2
330
188
100
AcDbEntity
  8
LAY-1
  6
CONTINUOUS
 62
     3
100
AcDbVertex
100
AcDb2dVertex
 10
258.5830551721588
 20
49.07783806534216
 30
0.0
  0
VERTEX
  5
1A3
330
188
100
AcDbEntity
  8
LAY-1
  6
CONTINUOUS
 62
     3
100
AcDbVertex
100
AcDb2dVertex
 10
258.4699520848527
 20
49.22399283400723
 30
0.0
  0
VERTEX
  5
1A4
330
188
100
AcDbEntity
  8
LAY-1
  6
CONTINUOUS
 62
     3
100
AcDbVertex
100
AcDb2dVertex
 10
258.3528126317132
 20
49.36854920654653
 30
0.0
  0
VERTEX
  5
1A5
330
188
100
AcDbEntity
  8
LAY-1
  6
CONTINUOUS
 62
     3
100
AcDbVertex
100
AcDb2dVertex
 10
258.2316819722294
 20
49.51145145372669
 30
0.0
  0
VERTEX
  5
1A6
330
188
100
AcDbEntity
  8
LAY-1
  6
CONTINUOUS
 62
     3
100
AcDbVertex
100
AcDb2dVertex
 10
258.1066068045763
 20
49.65264448401114
 30
0.0
  0
VERTEX
  5
1A7
330
188
100
AcDbEntity
  8
LAY-1
  6
CONTINUOUS
 62
     3
100
AcDbVertex
100
AcDb2dVertex
 10
257.977635347612
 20
49.79207386479899
 30
0.0
  0
VERTEX
  5
1A8
330
188
100
AcDbEntity
  8
LAY-1
  6
CONTINUOUS
 62
     3
100
AcDbVertex
100
AcDb2dVertex
 10
257.8448173222882
 20
49.92968584340977
 30
0.0
  0
VERTEX
  5
1A9
330
188
100
AcDbEntity
  8
LAY-1
  6
CONTINUOUS
 62
     3
100
AcDbVertex
100
AcDb2dVertex
 10
257.708203932482
 20
50.06542736780617
 30
0.0
  0
VERTEX
  5
1AA
330
188
100
AcDbEntity
  8
LAY-1
  6
CONTINUOUS
 62
     3
100
AcDbVertex
100
AcDb2dVertex
 10
257.5678478452556
 20
50.19924610704659
 30
0.0
  0
VERTEX
  5
1AB
330
188
100
AcDbEntity
  8
LAY-1
  6
CONTINUOUS
 62
     3
100
AcDbVertex
100
AcDb2dVertex
 10
257.4238031705527
 20
50.33109047145967
 30
0.0
  0
VERTEX
  5
1AC
330
188
100
AcDbEntity
  8
LAY-1
  6
CONTINUOUS
 62
     3
100
AcDbVertex
100
AcDb2dVertex
 10
257.2761254403371
 20
50.46090963253317
 30
0.0
  0
VERTEX
  5
1AD
330
188
100
AcDbEntity
  8
LAY-1
  6
CONTINUOUS
 62
     3
100
AcDbVertex
100
AcDb2dVertex
 10
257.1248715871852
 20
50.58865354250928
 30
0.0
  0
VERTEX
  5
1AE
330
188
100
AcDbEntity
  8
LAY-1
  6
CONTINUOUS
 62
     3
100
AcDbVertex
100
AcDb2dVertex
 10
256.9700999223365
 20
50.71427295367899
 30
0.0
  0
VERTEX
  5
1AF
330
188
100
AcDbEntity
  8
LAY-1
  6
CONTINUOUS
 62
     3
100
AcDbVertex
100
AcDb2dVertex
 10
256.8118701132142
 20
50.83771943736801
 30
0.0
  0
VERTEX
  5
1B0
330
188
100
AcDbEntity
  8
LAY-1
  6
CONTINUOUS
 62
     3
100
AcDbVertex
100
AcDb2dVertex
 10
256.6502431604215
 20
50.95894540260696
 30
0.0
  0
VERTEX
  5
1B1
330
188
100
AcDbEntity
  8
LAY-1
  6
CONTINUOUS
 62
     3
100
AcDbVertex
100
AcDb2dVertex
 10
256.4852813742256
 20
51.07790411447861
 30
0.0
  0
VERTEX
  5
1B2
330
188
100
AcDbEntity
  8
LAY-1
  6
CONTINUOUS
 62
     3
100
AcDbVertex
100
AcDb2dVertex
 10
256.3170483505352
 20
51.19454971213505
 30
0.0
  0
VERTEX
  5
1B3
330
188
100
AcDbEntity
  8
LAY-1
  6
CONTINUOUS
 62
     3
100
AcDbVertex
100
AcDb2dVertex
 10
256.1456089463834
 20
51.30883722647794
 30
0.0
  0
VERTEX
  5
1B4
330
188
100
AcDbEntity
  8
LAY-1
  6
CONTINUOUS
 62
     3
100
AcDbVertex
100
AcDb2dVertex
 10
255.971029254924
 20
51.4207225974949
 30
0.0
  0
VERTEX
  5
1B5
330
188
100
AcDbEntity
  8
LAY-1
  6
CONTINUOUS
 62
     3
100
AcDbVertex
100
AcDb2dVertex
 10
255.7933765799513
 20
51.53016269124561
 30
0.0
  0
VERTEX
  5
1B6
330
188
100
AcDbEntity
  8
LAY-1
  6
CONTINUOUS
 62
     3
100
AcDbVertex
100
AcDb2dVertex
 10
255.6127194099533
 20
51.63711531649064
 30
0.0
  0
VERTEX
  5
1B7
330
188
100
AcDbEntity
  8
LAY-1
  6
CONTINUOUS
 62
     3
100
AcDbVertex
100
AcDb2dVertex
 10
255.4291273917081
 20
51.74153924095699
 30
0.0
  0
VERTEX
  5
1B8
330
188
100
AcDbEntity
  8
LAY-1
  6
CONTINUOUS
 62
     3
100
AcDbVertex
100
AcDb2dVertex
 10
255.2426713034334
 20
51.843394207234
 30
0.0
  0
VERTEX
  5
1B9
330
188
100
AcDbEntity
  8
LAY-1
  6
CONTINUOUS
 62
     3
100
AcDbVertex
100
AcDb2dVertex
 10
255.0534230275007
 20
51.94264094829329
 30
0.0
  0
VERTEX
  5
1BA
330
188
100
AcDbEntity
  8
LAY-1
  6
CONTINUOUS
 62
     3
100
AcDbVertex
100
AcDb2dVertex
 10
254.8614555227227
 20
52.03924120262688
 30
0.0
  0
VERTEX
  5
1BB
330
188
100
AcDbEntity
  8
LAY-1
  6
CONTINUOUS
 62
     3
100
AcDbVertex
100
AcDb2dVertex
 10
254.6668427962271
 20
52.13315772899791
 30
0.0
  0
VERTEX
  5
1BC
330
188
100
AcDbEntity
  8
LAY-1
  6
CONTINUOUS
 62
     3
100
AcDbVertex
100
AcDb2dVertex
 10
254.4696598749242
 20
52.22435432079764
 30
0.0
  0
VERTEX
  5
1BD
330
188
100
AcDbEntity
  8
LAY-1
  6
CONTINUOUS
 62
     3
100
AcDbVertex
100
AcDb2dVertex
 10
254.2699827765841
 20
52.31279582000396
 30
0.0
  0
VERTEX
  5
1BE
330
188
100
AcDbEntity
  8
LAY-1
  6
CONTINUOUS
 62
     3
100
AcDbVertex
100
AcDb2dVertex
 10
254.0678884805289
 20
52.39844813073534
 30
0.0
  0
VERTEX
  5
1BF
330
188
100
AcDbEntity
  8
LAY-1
  6
CONTINUOUS
 62
     3
100
AcDbVertex
100
AcDb2dVertex
 10
253.8634548979569
 20
52.48127823239551
 30
0.0
  0
VERTEX
  5
1C0
330
188
100
AcDbEntity
  8
LAY-1
  6
CONTINUOUS
 62
     3
100
AcDbVertex
100
AcDb2dVertex
 10
253.6567608419057
 20
52.56125419240359
 30
0.0
  0
VERTEX
  5
1C1
330
188
100
AcDbEntity
  8
LAY-1
  6
CONTINUOUS
 62
     3
100
AcDbVertex
100
AcDb2dVertex
 10
253.4478859968686
 20
52.63834517850453
 30
0.0
  0
VERTEX
  5
1C2
330
188
100
AcDbEntity
  8
LAY-1
  6
CONTINUOUS
 62
     3
100
AcDbVertex
100
AcDb2dVertex
 10
253.2369108880746
 20
52.71252147065573
 30
0.0
  0
VERTEX
  5
1C3
330
188
100
AcDbEntity
  8
LAY-1
  6
CONTINUOUS
 62
     3
100
AcDbVertex
100
AcDb2dVertex
 10
253.0239168504439
 20
52.78375447248455
 30
0.0
  0
VERTEX
  5
1C4
330
188
100
AcDbEntity
  8
LAY-1
  6
CONTINUOUS
 62
     3
100
AcDbVertex
100
AcDb2dVertex
 10
252.8089859972328
 20
52.85201672231278
 30
0.0
  0
VERTEX
  5
1C5
330
188
100
AcDbEntity
  8
LAY-1
  6
CONTINUOUS
 62
     3
100
AcDbVertex
100
AcDb2dVertex
 10
252.5922011883764
 20
52.91728190374369
 30
0.0
  0
VERTEX
  5
1C6
330
188
100
AcDbEntity
  8
LAY-1
  6
CONTINUOUS
 62
     3
100
AcDbVertex
100
AcDb2dVertex
 10
252.3736459985454
 20
52.97952485580747
 30
0.0
  0
VERTEX
  5
1C7
330
188
100
AcDbEntity
  8
LAY-1
  6
CONTINUOUS
 62
     3
100
AcDbVertex
100
AcDb2dVertex
 10
252.1534046849257
 20
53.03872158266125
 30
0.0
  0
VERTEX
  5
1C8
330
188
100
AcDbEntity
  8
LAY-1
  6
CONTINUOUS
 62
     3
100
AcDbVertex
100
AcDb2dVertex
 10
251.9315621547364
 20
53.09484926283994
 30
0.0
  0
VERTEX
  5
1C9
330
188
100
AcDbEntity
  8
LAY-1
  6
CONTINUOUS
 62
     3
100
AcDbVertex
100
AcDb2dVertex
 10
251.7082039324956
 20
53.14788625805443
 30
0.0
  0
VERTEX
  5
1CA
330
188
100
AcDbEntity
  8
LAY-1
  6
CONTINUOUS
 62
     3
100
AcDbVertex
100
AcDb2dVertex
 10
251.48341612705
 20
53.19781212153342
 30
0.0
  0
VERTEX
  5
1CB
330
188
100
AcDbEntity
  8
LAY-1
  6
CONTINUOUS
 62
     3
100
AcDbVertex
100
AcDb2dVertex
 10
251.2572853983775
 20
53.2446076059062
 30
0.0
  0
VERTEX
  5
1CC
330
188
100
AcDbEntity
  8
LAY-1
  6
CONTINUOUS
 62
     3
100
AcDbVertex
100
AcDb2dVertex
 10
251.0298989241786
 20
53.2882546706227
 30
0.0
  0
VERTEX
  5
1CD
330
188
100
AcDbEntity
  8
LAY-1
  6
CONTINUOUS
 62
     3
100
AcDbVertex
100
AcDb2dVertex
 10
250.8013443662677
 20
53.32873648890865
 30
0.0
  0
VERTEX
  5
1CE
330
188
100
AcDbEntity
  8
LAY-1
  6
CONTINUOUS
 62
     3
100
AcDbVertex
100
AcDb2dVertex
 10
250.5717098367776
 20
53.36603745425249
 30
0.0
  0
VERTEX
  5
1CF
330
188
100
AcDbEntity
  8
LAY-1
  6
CONTINUOUS
 62
     3
100
AcDbVertex
100
AcDb2dVertex
 10
250.3410838641906
 20
53.40014318642201
 30
0.0
  0
VERTEX
  5
1D0
330
188
100
AcDbEntity
  8
LAY-1
  6
CONTINUOUS
 62
     3
100
AcDbVertex
100
AcDb2dVertex
 10
250.1095553592095
 20
53.43104053700824
 30
0.0
  0
VERTEX
  5
1D1
330
188
100
AcDbEntity
  8
LAY-1
  6
CONTINUOUS
 62
     3
100
AcDbVertex
100
AcDb2dVertex
 10
249.87721358048
 20
53.45871759449436
 30
0.0
  0
VERTEX
  5
1D2
330
188
100
AcDbEntity
  8
LAY-1
  6
CONTINUOUS
 62
     3
100
AcDbVertex
100
AcDb2dVertex
 10
249.6441481001809
 20
53.48316368884782
 30
0.0
  0
VERTEX
  5
1D3
330
188
100
AcDbEntity
  8
LAY-1
  6
CONTINUOUS
 62
     3
100
AcDbVertex
100
AcDb2dVertex
 10
249.4104487694914
 20
53.50436939563397
 30
0.0
  0
VERTEX
  5
1D4
330
188
100
AcDbEntity
  8
LAY-1
  6
CONTINUOUS
 62
     3
100
AcDbVertex
100
AcDb2dVertex
 10
249.176205683952
 20
53.52232653964911
 30
0.0
  0
VERTEX
  5
1D5
330
188
100
AcDbEntity
  8
LAY-1
  6
CONTINUOUS
 62
     3
100
AcDbVertex
100
AcDb2dVertex
 10
248.9415091487315
 20
53.53702819807243
 30
0.0
  0
VERTEX
  5
1D6
330
188
100
AcDbEntity
  8
LAY-1
  6
CONTINUOUS
 62
     3
100
AcDbVertex
100
AcDb2dVertex
 10
248.7064496438115
 20
53.54846870313471
 30
0.0
  0
VERTEX
  5
1D7
330
188
100
AcDbEntity
  8
LAY-1
  6
CONTINUOUS
 62
     3
100
AcDbVertex
100
AcDb2dVertex
 10
248.4711177891061
 20
53.55664364430351
 30
0.0
  0
VERTEX
  5
1D8
330
188
100
AcDbEntity
  8
LAY-1
  6
CONTINUOUS
 62
     3
100
AcDbVertex
100
AcDb2dVertex
 10
248.2356043095248
 20
53.56154986998336
 30
0.0
  0
VERTEX
  5
1D9
330
188
100
AcDbEntity
  8
LAY-1
  6
CONTINUOUS
 62
     3
100
AcDbVertex
100
AcDb2dVertex
 10
247.9999999999972
 20
53.56318548873091
 30
0.0
  0
VERTEX
  5
1DA
330
188
100
AcDbEntity
  8
LAY-1
  6
CONTINUOUS
 62
     3
100
AcDbVertex
100
AcDb2dVertex
 10
247.7643956904695
 20
53.56154986998392
 30
0.0
  0
VERTEX
  5
1DB
330
188
100
AcDbEntity
  8
LAY-1
  6
CONTINUOUS
 62
     3
100
AcDbVertex
100
AcDb2dVertex
 10
247.5288822108881
 20
53.55664364430461
 30
0.0
  0
VERTEX
  5
1DC
330
188
100
AcDbEntity
  8
LAY-1
  6
CONTINUOUS
 62
     3
100
AcDbVertex
100
AcDb2dVertex
 10
247.2935503561825
 20
53.54846870313637
 30
0.0
  0
VERTEX
  5
1DD
330
188
100
AcDbEntity
  8
LAY-1
  6
CONTINUOUS
 62
     3
100
AcDbVertex
100
AcDb2dVertex
 10
247.0584908512626
 20
53.53702819807464
 30
0.0
  0
VERTEX
  5
1DE
330
188
100
AcDbEntity
  8
LAY-1
  6
CONTINUOUS
 62
     3
100
AcDbVertex
100
AcDb2dVertex
 10
246.8237943160418
 20
53.52232653965186
 30
0.0
  0
VERTEX
  5
1DF
330
188
100
AcDbEntity
  8
LAY-1
  6
CONTINUOUS
 62
     3
100
AcDbVertex
100
AcDb2dVertex
 10
246.5895512305024
 20
53.50436939563726
 30
0.0
  0
VERTEX
  5
1E0
330
188
100
AcDbEntity
  8
LAY-1
  6
CONTINUOUS
 62
     3
100
AcDbVertex
100
AcDb2dVertex
 10
246.3558518998126
 20
53.48316368885166
 30
0.0
  0
VERTEX
  5
1E1
330
188
100
AcDbEntity
  8
LAY-1
  6
CONTINUOUS
 62
     3
100
AcDbVertex
100
AcDb2dVertex
 10
246.1227864195133
 20
53.45871759449871
 30
0.0
  0
VERTEX
  5
1E2
330
188
100
AcDbEntity
  8
LAY-1
  6
CONTINUOUS
 62
     3
100
AcDbVertex
100
AcDb2dVertex
 10
245.8904446407836
 20
53.43104053701311
 30
0.0
  0
VERTEX
  5
1E3
330
188
100
AcDbEntity
  8
LAY-1
  6
CONTINUOUS
 62
     3
100
AcDbVertex
100
AcDb2dVertex
 10
245.6589161358021
 20
53.40014318642742
 30
0.0
  0
VERTEX
  5
1E4
330
188
100
AcDbEntity
  8
LAY-1
  6
CONTINUOUS
 62
     3
100
AcDbVertex
100
AcDb2dVertex
 10
245.4282901632149
 20
53.36603745425842
 30
0.0
  0
VERTEX
  5
1E5
330
188
100
AcDbEntity
  8
LAY-1
  6
CONTINUOUS
 62
     3
100
AcDbVertex
100
AcDb2dVertex
 10
245.1986556337244
 20
53.32873648891507
 30
0.0
  0
VERTEX
  5
1E6
330
188
100
AcDbEntity
  8
LAY-1
  6
CONTINUOUS
 62
     3
100
AcDbVertex
100
AcDb2dVertex
 10
244.9701010758131
 20
53.28825467062961
 30
0.0
  0
VERTEX
  5
1E7
330
188
100
AcDbEntity
  8
LAY-1
  6
CONTINUOUS
 62
     3
100
AcDbVertex
100
AcDb2dVertex
 10
244.7427146016138
 20
53.24460760591356
 30
0.0
  0
VERTEX
  5
1E8
330
188
100
AcDbEntity
  8
LAY-1
  6
CONTINUOUS
 62
     3
100
AcDbVertex
100
AcDb2dVertex
 10
244.5165838729409
 20
53.19781212154127
 30
0.0
  0
VERTEX
  5
1E9
330
188
100
AcDbEntity
  8
LAY-1
  6
CONTINUOUS
 62
     3
100
AcDbVertex
100
AcDb2dVertex
 10
244.2917960674948
 20
53.14788625806272
 30
0.0
  0
VERTEX
  5
1EA
330
188
100
AcDbEntity
  8
LAY-1
  6
CONTINUOUS
 62
     3
100
AcDbVertex
100
AcDb2dVertex
 10
244.0684378452536
 20
53.0948492628487
 30
0.0
  0
VERTEX
  5
1EB
330
188
100
AcDbEntity
  8
LAY-1
  6
CONTINUOUS
 62
     3
100
AcDbVertex
100
AcDb2dVertex
 10
243.8465953150638
 20
53.03872158267041
 30
0.0
  0
VERTEX
  5
1EC
330
188
100
AcDbEntity
  8
LAY-1
  6
CONTINUOUS
 62
     3
100
AcDbVertex
100
AcDb2dVertex
 10
243.6263540014436
 20
52.97952485581706
 30
0.0
  0
VERTEX
  5
1ED
330
188
100
AcDbEntity
  8
LAY-1
  6
CONTINUOUS
 62
     3
100
AcDbVertex
100
AcDb2dVertex
 10
243.4077988116121
 20
52.91728190375369
 30
0.0
  0
VERTEX
  5
1EE
330
188
100
AcDbEntity
  8
LAY-1
  6
CONTINUOUS
 62
     3
100
AcDbVertex
100
AcDb2dVertex
 10
243.1910140027551
 20
52.85201672232314
 30
0.0
  0
VERTEX
  5
1EF
330
188
100
AcDbEntity
  8
LAY-1
  6
CONTINUOUS
 62
     3
100
AcDbVertex
100
AcDb2dVertex
 10
242.9760831495433
 20
52.78375447249528
 30
0.0
  0
VERTEX
  5
1F0
330
188
100
AcDbEntity
  8
LAY-1
  6
CONTINUOUS
 62
     3
100
AcDbVertex
100
AcDb2dVertex
 10
242.7630891119122
 20
52.71252147066683
 30
0.0
  0
VERTEX
  5
1F1
330
188
100
AcDbEntity
  8
LAY-1
  6
CONTINUOUS
 62
     3
100
AcDbVertex
100
AcDb2dVertex
 10
242.5521140031174
 20
52.63834517851596
 30
0.0
  0
VERTEX
  5
1F2
330
188
100
AcDbEntity
  8
LAY-1
  6
CONTINUOUS
 62
     3
100
AcDbVertex
100
AcDb2dVertex
 10
242.3432391580797
 20
52.56125419241533
 30
0.0
  0
VERTEX
  5
1F3
330
188
100
AcDbEntity
  8
LAY-1
  6
CONTINUOUS
 62
     3
100
AcDbVertex
100
AcDb2dVertex
 10
242.1365451020279
 20
52.48127823240756
 30
0.0
  0
VERTEX
  5
1F4
330
188
100
AcDbEntity
  8
LAY-1
  6
CONTINUOUS
 62
     3
100
AcDbVertex
100
AcDb2dVertex
 10
241.9321115194552
 20
52.39844813074765
 30
0.0
  0
VERTEX
  5
1F5
330
188
100
AcDbEntity
  8
LAY-1
  6
CONTINUOUS
 62
     3
100
AcDbVertex
100
AcDb2dVertex
 10
241.7300172233993
 20
52.31279582001653
 30
0.0
  0
VERTEX
  5
1F6
330
188
100
AcDbEntity
  8
LAY-1
  6
CONTINUOUS
 62
     3
100
AcDbVertex
100
AcDb2dVertex
 10
241.5303401250584
 20
52.22435432081047
 30
0.0
  0
VERTEX
  5
1F7
330
188
100
AcDbEntity
  8
LAY-1
  6
CONTINUOUS
 62
     3
100
AcDbVertex
100
AcDb2dVertex
 10
241.3331572037548
 20
52.13315772901095
 30
0.0
  0
VERTEX
  5
1F8
330
188
100
AcDbEntity
  8
LAY-1
  6
CONTINUOUS
 62
     3
100
AcDbVertex
100
AcDb2dVertex
 10
241.1385444772584
 20
52.03924120264013
 30
0.0
  0
VERTEX
  5
1F9
330
188
100
AcDbEntity
  8
LAY-1
  6
CONTINUOUS
 62
     3
100
AcDbVertex
100
AcDb2dVertex
 10
240.9465769724798
 20
51.9426409483067
 30
0.0
  0
VERTEX
  5
1FA
330
188
100
AcDbEntity
  8
LAY-1
  6
CONTINUOUS
 62
     3
100
AcDbVertex
100
AcDb2dVertex
 10
240.7573286965463
 20
51.8433942072476
 30
0.0
  0
VERTEX
  5
1FB
330
188
100
AcDbEntity
  8
LAY-1
  6
CONTINUOUS
 62
     3
100
AcDbVertex
100
AcDb2dVertex
 10
240.5708726082709
 20
51.74153924097072
 30
0.0
  0
VERTEX
  5
1FC
330
188
100
AcDbEntity
  8
LAY-1
  6
CONTINUOUS
 62
     3
100
AcDbVertex
100
AcDb2dVertex
 10
240.3872805900249
 20
51.63711531650448
 30
0.0
  0
VERTEX
  5
1FD
330
188
100
AcDbEntity
  8
LAY-1
  6
CONTINUOUS
 62
     3
100
AcDbVertex
100
AcDb2dVertex
 10
240.2066234200262
 20
51.53016269125956
 30
0.0
  0
VERTEX
  5
1FE
330
188
100
AcDbEntity
  8
LAY-1
  6
CONTINUOUS
 62
     3
100
AcDbVertex
100
AcDb2dVertex
 10
240.0289707450527
 20
51.42072259750892
 30
0.0
  0
VERTEX
  5
1FF
330
188
100
AcDbEntity
  8
LAY-1
  6
CONTINUOUS
 62
     3
100
AcDbVertex
100
AcDb2dVertex
 10
239.8543910535925
 20
51.308837226492
 30
0.0
  0
VERTEX
  5
200
330
188
100
AcDbEntity
  8
LAY-1
  6
CONTINUOUS
 62
     3
100
AcDbVertex
100
AcDb2dVertex
 10
239.6829516494399
 20
51.19454971214914
 30
0.0
  0
VERTEX
  5
201
330
188
100
AcDbEntity
  8
LAY-1
  6
CONTINUOUS
 62
     3
100
AcDbVertex
100
AcDb2dVertex
 10
239.5147186257486
 20
51.0779041144927
 30
0.0
  0
VERTEX
  5
202
330
188
100
AcDbEntity
  8
LAY-1
  6
CONTINUOUS
 62
     3
100
AcDbVertex
100
AcDb2dVertex
 10
239.349756839552
 20
50.95894540262105
 30
0.0
  0
VERTEX
  5
203
330
188
100
AcDbEntity
  8
LAY-1
  6
CONTINUOUS
 62
     3
100
AcDbVertex
100
AcDb2dVertex
 10
239.1881298867585
 20
50.83771943738206
 30
0.0
  0
VERTEX
  5
204
330
188
100
AcDbEntity
  8
LAY-1
  6
CONTINUOUS
 62
     3
100
AcDbVertex
100
AcDb2dVertex
 10
239.0299000776354
 20
50.71427295369298
 30
0.0
  0
VERTEX
  5
205
330
188
100
AcDbEntity
  8
LAY-1
  6
CONTINUOUS
 62
     3
100
AcDbVertex
100
AcDb2dVertex
 10
238.8751284127859
 20
50.5886535425232
 30
0.0
  0
VERTEX
  5
206
330
188
100
AcDbEntity
  8
LAY-1
  6
CONTINUOUS
 62
     3
100
AcDbVertex
100
AcDb2dVertex
 10
238.7238745596333
 20
50.46090963254701
 30
0.0
  0
VERTEX
  5
207
330
188
100
AcDbEntity
  8
LAY-1
  6
CONTINUOUS
 62
     3
100
AcDbVertex
100
AcDb2dVertex
 10
238.576196829417
 20
50.33109047147339
 30
0.0
  0
VERTEX
  5
208
330
188
100
AcDbEntity
  8
LAY-1
  6
CONTINUOUS
 62
     3
100
AcDbVertex
100
AcDb2dVertex
 10
238.4321521547132
 20
50.19924610706015
 30
0.0
  0
VERTEX
  5
209
330
188
100
AcDbEntity
  8
LAY-1
  6
CONTINUOUS
 62
     3
100
AcDbVertex
100
AcDb2dVertex
 10
238.2917960674862
 20
50.06542736781957
 30
0.0
  0
VERTEX
  5
20A
330
188
100
AcDbEntity
  8
LAY-1
  6
CONTINUOUS
 62
     3
100
AcDbVertex
100
AcDb2dVertex
 10
238.1551826776792
 20
49.92968584342299
 30
0.0
  0
VERTEX
  5
20B
330
188
100
AcDbEntity
  8
LAY-1
  6
CONTINUOUS
 62
     3
100
AcDbVertex
100
AcDb2dVertex
 10
238.0223646523546
 20
49.79207386481199
 30
0.0
  0
VERTEX
  5
20C
330
188
100
AcDbEntity
  8
LAY-1
  6
CONTINUOUS
 62
     3
100
AcDbVertex
100
AcDb2dVertex
 10
237.8933931953896
 20
49.65264448402393
 30
0.0
  0
VERTEX
  5
20D
330
188
100
AcDbEntity
  8
LAY-1
  6
CONTINUOUS
 62
     3
100
AcDbVertex
100
AcDb2dVertex
 10
237.7683180277359
 20
49.51145145373924
 30
0.0
  0
VERTEX
  5
20E
330
188
100
AcDbEntity
  8
LAY-1
  6
CONTINUOUS
 62
     3
100
AcDbVertex
100
AcDb2dVertex
 10
237.6471873682513
 20
49.36854920655882
 30
0.0
  0
VERTEX
  5
20F
330
188
100
AcDbEntity
  8
LAY-1
  6
CONTINUOUS
 62
     3
100
AcDbVertex
100
AcDb2dVertex
 10
237.5300479151111
 20
49.22399283401923
 30
0.0
  0
VERTEX
  5
210
330
188
100
AcDbEntity
  8
LAY-1
  6
CONTINUOUS
 62
     3
100
AcDbVertex
100
AcDb2dVertex
 10
237.4169448278043
 20
49.07783806535384
 30
0.0
  0
VERTEX
  5
211
330
188
100
AcDbEntity
  8
LAY-1
  6
CONTINUOUS
 62
     3
100
AcDbVertex
100
AcDb2dVertex
 10
237.3079217097241
 20
48.93014124600819
 30
0.0
  0
VERTEX
  5
212
330
188
100
AcDbEntity
  8
LAY-1
  6
CONTINUOUS
 62
     3
100
AcDbVertex
100
AcDb2dVertex
 10
237.2030205913578
 20
48.78095931591763
 30
0.0
  0
VERTEX
  5
213
330
188
100
AcDbEntity
  8
LAY-1
  6
CONTINUOUS
 62
     3
100
AcDbVertex
100
AcDb2dVertex
 10
237.1022819140835
 20
48.63034978755605
 30
0.0
  0
VERTEX
  5
214
330
188
100
AcDbEntity
  8
LAY-1
  6
CONTINUOUS
 62
     3
100
AcDbVertex
100
AcDb2dVertex
 10
237.0057445145788
 20
48.47837072376359
 30
0.0
  0
VERTEX
  5
215
330
188
100
AcDbEntity
  8
LAY-1
  6
CONTINUOUS
 62
     3
100
AcDbVertex
100
AcDb2dVertex
 10
236.9134456098489
 20
48.3250807153624
 30
0.0
  0
VERTEX
  5
216
330
188
100
AcDbEntity
  8
LAY-1
  6
CONTINUOUS
 62
     3
100
AcDbVertex
100
AcDb2dVertex
 10
236.8254207828787
 20
48.17053885856875
 30
0.0
  0
VERTEX
  5
217
330
188
100
AcDbEntity
  8
LAY-1
  6
CONTINUOUS
 62
     3
100
AcDbVertex
100
AcDb2dVertex
 10
236.7417039689146
 20
48.01480473221027
 30
0.0
  0
VERTEX
  5
218
330
188
100
AcDbEntity
  8
LAY-1
  6
CONTINUOUS
 62
     3
100
AcDbVertex
100
AcDb2dVertex
 10
236.6623274423819
 20
47.85793837475715
 30
0.0
  0
VERTEX
  5
219
330
188
100
AcDbEntity
  8
LAY-1
  6
CONTINUOUS
 62
     3
100
AcDbVertex
100
AcDb2dVertex
 10
236.5873218044426
 20
47.70000026117637
 30
0.0
  0
VERTEX
  5
21A
330
188
100
AcDbEntity
  8
LAY-1
  6
CONTINUOUS
 62
     3
100
AcDbVertex
100
AcDb2dVertex
 10
236.516715971198
 20
47.54105127961713
 30
0.0
  0
VERTEX
  5
21B
330
188
100
AcDbEntity
  8
LAY-1
  6
CONTINUOUS
 62
     3
100
AcDbVertex
100
AcDb2dVertex
 10
236.4505371625409
 20
47.38115270793759
 30
0.0
  0
VERTEX
  5
21C
330
188
100
AcDbEntity
  8
LAY-1
  6
CONTINUOUS
 62
     3
100
AcDbVertex
100
AcDb2dVertex
 10
236.3888108916616
 20
47.22036619008094
 30
0.0
  0
VERTEX
  5
21D
330
188
100
AcDbEntity
  8
LAY-1
  6
CONTINUOUS
 62
     3
100
AcDbVertex
100
AcDb2dVertex
 10
236.3315609552127
 20
47.05875371231048
 30
0.0
  0
VERTEX
  5
21E
330
188
100
AcDbEntity
  8
LAY-1
  6
CONTINUOUS
 62
     3
100
AcDbVertex
100
AcDb2dVertex
 10
236.2788094241345
 20
46.8963775793129
 30
0.0
  0
VERTEX
  5
21F
330
188
100
AcDbEntity
  8
LAY-1
  6
CONTINUOUS
 62
     3
100
AcDbVertex
100
AcDb2dVertex
 10
236.2305766351463
 20
46.73330039017839
 30
0.0
  0
VERTEX
  5
220
330
188
100
AcDbEntity
  8
LAY-1
  6
CONTINUOUS
 62
     3
100
AcDbVertex
100
AcDb2dVertex
 10
236.1868811829065
 20
46.5695850142677
 30
0.0
  0
VERTEX
  5
221
330
188
100
AcDbEntity
  8
LAY-1
  6
CONTINUOUS
 62
     3
100
AcDbVertex
100
AcDb2dVertex
 10
236.1477399128437
 20
46.40529456697471
 30
0.0
  0
VERTEX
  5
222
330
188
100
AcDbEntity
  8
LAY-1
  6
CONTINUOUS
 62
     3
100
AcDbVertex
100
AcDb2dVertex
 10
236.1131679146626
 20
46.24049238539423
 30
0.0
  0
VERTEX
  5
223
330
188
100
AcDbEntity
  8
LAY-1
  6
CONTINUOUS
 62
     3
100
AcDbVertex
100
AcDb2dVertex
 10
236.0831785165266
 20
46.07524200390444
 30
0.0
  0
VERTEX
  5
224
330
188
100
AcDbEntity
  8
LAY-1
  6
CONTINUOUS
 62
     3
100
AcDbVertex
100
AcDb2dVertex
 10
236.0577832799196
 20
45.9096071296731
 30
0.0
  0
VERTEX
  5
225
330
188
100
AcDbEntity
  8
LAY-1
  6
CONTINUOUS
 62
     3
100
AcDbVertex
100
AcDb2dVertex
 10
236.0369919951886
 20
45.7436516180972
 30
0.0
  0
VERTEX
  5
226
330
188
100
AcDbEntity
  8
LAY-1
  6
CONTINUOUS
 62
     3
100
AcDbVertex
100
AcDb2dVertex
 10
236.0208126777698
 20
45.57743944818559
 30
0.0
  0
VERTEX
  5
227
330
188
100
AcDbEntity
  8
LAY-1
  6
CONTINUOUS
 62
     3
100
AcDbVertex
100
AcDb2dVertex
 10
236.009251565098
 20
45.41103469789375
 30
0.0
  0
VERTEX
  5
228
330
188
100
AcDbEntity
  8
LAY-1
  6
CONTINUOUS
 62
     3
100
AcDbVertex
100
AcDb2dVertex
 10
236.0023131142021
 20
45.24450151942059
 30
0.0
  0
VERTEX
  5
229
330
188
100
AcDbEntity
  8
LAY-1
  6
CONTINUOUS
 62
     3
100
AcDbVertex
100
AcDb2dVertex
 10
235.9999999999872
 20
45.07790411447649
 30
0.0
  0
VERTEX
  5
22A
330
188
100
AcDbEntity
  8
LAY-1
  6
CONTINUOUS
 62
     3
100
AcDbVertex
100
AcDb2dVertex
 10
236.0023131142027
 20
44.91130670953239
 30
0.0
  0
VERTEX
  5
22B
330
188
100
AcDbEntity
  8
LAY-1
  6
CONTINUOUS
 62
     3
100
AcDbVertex
100
AcDb2dVertex
 10
236.0092515650991
 20
44.74477353105925
 30
0.0
  0
VERTEX
  5
22C
330
188
100
AcDbEntity
  8
LAY-1
  6
CONTINUOUS
 62
     3
100
AcDbVertex
100
AcDb2dVertex
 10
236.0208126777714
 20
44.57836878076746
 30
0.0
  0
VERTEX
  5
22D
330
188
100
AcDbEntity
  8
LAY-1
  6
CONTINUOUS
 62
     3
100
AcDbVertex
100
AcDb2dVertex
 10
236.0369919951908
 20
44.4121566108559
 30
0.0
  0
VERTEX
  5
22E
330
188
100
AcDbEntity
  8
LAY-1
  6
CONTINUOUS
 62
     3
100
AcDbVertex
100
AcDb2dVertex
 10
236.0577832799223
 20
44.24620109928008
 30
0.0
  0
VERTEX
  5
22F
330
188
100
AcDbEntity
  8
LAY-1
  6
CONTINUOUS
 62
     3
100
AcDbVertex
100
AcDb2dVertex
 10
236.0831785165299
 20
44.08056622504881
 30
0.0
  0
VERTEX
  5
230
330
188
100
AcDbEntity
  8
LAY-1
  6
CONTINUOUS
 62
     3
100
AcDbVertex
100
AcDb2dVertex
 10
236.1131679146665
 20
43.91531584355911
 30
0.0
  0
VERTEX
  5
231
330
188
100
AcDbEntity
  8
LAY-1
  6
CONTINUOUS
 62
     3
100
AcDbVertex
100
AcDb2dVertex
 10
236.147739912848
 20
43.75051366197877
 30
0.0
  0
VERTEX
  5
232
330
188
100
AcDbEntity
  8
LAY-1
  6
CONTINUOUS
 62
     3
100
AcDbVertex
100
AcDb2dVertex
 10
236.1868811829114
 20
43.58622321468589
 30
0.0
  0
VERTEX
  5
233
330
188
100
AcDbEntity
  8
LAY-1
  6
CONTINUOUS
 62
     3
100
AcDbVertex
100
AcDb2dVertex
 10
236.2305766351516
 20
43.42250783877533
 30
0.0
  0
VERTEX
  5
234
330
188
100
AcDbEntity
  8
LAY-1
  6
CONTINUOUS
 62
     3
100
AcDbVertex
100
AcDb2dVertex
 10
236.2788094241403
 20
43.25943064964098
 30
0.0
  0
VERTEX
  5
235
330
188
100
AcDbEntity
  8
LAY-1
  6
CONTINUOUS
 62
     3
100
AcDbVertex
100
AcDb2dVertex
 10
236.3315609552191
 20
43.09705451664355
 30
0.0
  0
VERTEX
  5
236
330
188
100
AcDbEntity
  8
LAY-1
  6
CONTINUOUS
 62
     3
100
AcDbVertex
100
AcDb2dVertex
 10
236.3888108916684
 20
42.93544203887331
 30
0.0
  0
VERTEX
  5
237
330
188
100
AcDbEntity
  8
LAY-1
  6
CONTINUOUS
 62
     3
100
AcDbVertex
100
AcDb2dVertex
 10
236.4505371625482
 20
42.77465552101685
 30
0.0
  0
VERTEX
  5
238
330
188
100
AcDbEntity
  8
LAY-1
  6
CONTINUOUS
 62
     3
100
AcDbVertex
100
AcDb2dVertex
 10
236.5167159712058
 20
42.61475694933752
 30
0.0
  0
VERTEX
  5
239
330
188
100
AcDbEntity
  8
LAY-1
  6
CONTINUOUS
 62
     3
100
AcDbVertex
100
AcDb2dVertex
 10
236.5873218044509
 20
42.4558079677785
 30
0.0
  0
VERTEX
  5
23A
330
188
100
AcDbEntity
  8
LAY-1
  6
CONTINUOUS
 62
     3
100
AcDbVertex
100
AcDb2dVertex
 10
236.6623274423906
 20
42.29786985419793
 30
0.0
  0
VERTEX
  5
23B
330
188
100
AcDbEntity
  8
LAY-1
  6
CONTINUOUS
 62
     3
100
AcDbVertex
100
AcDb2dVertex
 10
236.7417039689237
 20
42.14100349674508
 30
0.0
  0
VERTEX
  5
23C
330
188
100
AcDbEntity
  8
LAY-1
  6
CONTINUOUS
 62
     3
100
AcDbVertex
100
AcDb2dVertex
 10
236.8254207828883
 20
41.98526937038685
 30
0.0
  0
VERTEX
  5
23D
330
188
100
AcDbEntity
  8
LAY-1
  6
CONTINUOUS
 62
     3
100
AcDbVertex
100
AcDb2dVertex
 10
236.9134456098589
 20
41.83072751359346
 30
0.0
  0
VERTEX
  5
23E
330
188
100
AcDbEntity
  8
LAY-1
  6
CONTINUOUS
 62
     3
100
AcDbVertex
100
AcDb2dVertex
 10
237.0057445145891
 20
41.67743750519255
 30
0.0
  0
VERTEX
  5
23F
330
188
100
AcDbEntity
  8
LAY-1
  6
CONTINUOUS
 62
     3
100
AcDbVertex
100
AcDb2dVertex
 10
237.1022819140941
 20
41.52545844140038
 30
0.0
  0
VERTEX
  5
240
330
188
100
AcDbEntity
  8
LAY-1
  6
CONTINUOUS
 62
     3
100
AcDbVertex
100
AcDb2dVertex
 10
237.2030205913689
 20
41.3748489130391
 30
0.0
  0
VERTEX
  5
241
330
188
100
AcDbEntity
  8
LAY-1
  6
CONTINUOUS
 62
     3
100
AcDbVertex
100
AcDb2dVertex
 10
237.3079217097355
 20
41.22566698294884
 30
0.0
  0
VERTEX
  5
242
330
188
100
AcDbEntity
  8
LAY-1
  6
CONTINUOUS
 62
     3
100
AcDbVertex
100
AcDb2dVertex
 10
237.416944827816
 20
41.07797016360349
 30
0.0
  0
VERTEX
  5
243
330
188
100
AcDbEntity
  8
LAY-1
  6
CONTINUOUS
 62
     3
100
AcDbVertex
100
AcDb2dVertex
 10
237.5300479151231
 20
40.93181539493845
 30
0.0
  0
VERTEX
  5
244
330
188
100
AcDbEntity
  8
LAY-1
  6
CONTINUOUS
 62
     3
100
AcDbVertex
100
AcDb2dVertex
 10
237.6471873682635
 20
40.7872590223992
 30
0.0
  0
VERTEX
  5
245
330
188
100
AcDbEntity
  8
LAY-1
  6
CONTINUOUS
 62
     3
100
AcDbVertex
100
AcDb2dVertex
 10
237.7683180277483
 20
40.64435677521912
 30
0.0
  0
VERTEX
  5
246
330
188
100
AcDbEntity
  8
LAY-1
  6
CONTINUOUS
 62
     3
100
AcDbVertex
100
AcDb2dVertex
 10
237.8933931954024
 20
40.50316374493477
 30
0.0
  0
VERTEX
  5
247
330
188
100
AcDbEntity
  8
LAY-1
  6
CONTINUOUS
 62
     3
100
AcDbVertex
100
AcDb2dVertex
 10
238.0223646523677
 20
40.36373436414706
 30
0.0
  0
VERTEX
  5
248
330
188
100
AcDbEntity
  8
LAY-1
  6
CONTINUOUS
 62
     3
100
AcDbVertex
100
AcDb2dVertex
 10
238.1551826776924
 20
40.22612238553642
 30
0.0
  0
VERTEX
  5
249
330
188
100
AcDbEntity
  8
LAY-1
  6
CONTINUOUS
 62
     3
100
AcDbVertex
100
AcDb2dVertex
 10
238.2917960674995
 20
40.0903808611402
 30
0.0
  0
VERTEX
  5
24A
330
188
100
AcDbEntity
  8
LAY-1
  6
CONTINUOUS
 62
     3
100
AcDbVertex
100
AcDb2dVertex
 10
238.4321521547267
 20
39.9565621219
 30
0.0
  0
VERTEX
  5
24B
330
188
100
AcDbEntity
  8
LAY-1
  6
CONTINUOUS
 62
     3
100
AcDbVertex
100
AcDb2dVertex
 10
238.5761968294306
 20
39.82471775748714
 30
0.0
  0
VERTEX
  5
24C
330
188
100
AcDbEntity
  8
LAY-1
  6
CONTINUOUS
 62
     3
100
AcDbVertex
100
AcDb2dVertex
 10
238.723874559647
 20
39.69489859641391
 30
0.0
  0
VERTEX
  5
24D
330
188
100
AcDbEntity
  8
LAY-1
  6
CONTINUOUS
 62
     3
100
AcDbVertex
100
AcDb2dVertex
 10
238.8751284127998
 20
39.56715468643807
 30
0.0
  0
VERTEX
  5
24E
330
188
100
AcDbEntity
  8
LAY-1
  6
CONTINUOUS
 62
     3
100
AcDbVertex
100
AcDb2dVertex
 10
239.0299000776493
 20
39.44153527526868
 30
0.0
  0
VERTEX
  5
24F
330
188
100
AcDbEntity
  8
LAY-1
  6
CONTINUOUS
 62
     3
100
AcDbVertex
100
AcDb2dVertex
 10
239.1881298867725
 20
39.31808879158
 30
0.0
  0
VERTEX
  5
250
330
188
100
AcDbEntity
  8
LAY-1
  6
CONTINUOUS
 62
     3
100
AcDbVertex
100
AcDb2dVertex
 10
239.349756839566
 20
39.19686282634139
 30
0.0
  0
VERTEX
  5
251
330
188
100
AcDbEntity
  8
LAY-1
  6
CONTINUOUS
 62
     3
100
AcDbVertex
100
AcDb2dVertex
 10
239.5147186257627
 20
39.07790411447012
 30
0.0
  0
VERTEX
  5
252
330
188
100
AcDbEntity
  8
LAY-1
  6
CONTINUOUS
 62
     3
100
AcDbVertex
100
AcDb2dVertex
 10
239.6829516494539
 20
38.96125851681408
 30
0.0
  0
VERTEX
  5
253
330
188
100
AcDbEntity
  8
LAY-1
  6
CONTINUOUS
 62
     3
100
AcDbVertex
100
AcDb2dVertex
 10
239.8543910536065
 20
38.84697100247161
 30
0.0
  0
VERTEX
  5
254
330
188
100
AcDbEntity
  8
LAY-1
  6
CONTINUOUS
 62
     3
100
AcDbVertex
100
AcDb2dVertex
 10
240.0289707450667
 20
38.73508563145508
 30
0.0
  0
VERTEX
  5
255
330
188
100
AcDbEntity
  8
LAY-1
  6
CONTINUOUS
 62
     3
100
AcDbVertex
100
AcDb2dVertex
 10
240.20662342004
 20
38.62564553770483
 30
0.0
  0
VERTEX
  5
256
330
188
100
AcDbEntity
  8
LAY-1
  6
CONTINUOUS
 62
     3
100
AcDbVertex
100
AcDb2dVertex
 10
240.3872805900387
 20
38.51869291246028
 30
0.0
  0
VERTEX
  5
257
330
188
100
AcDbEntity
  8
LAY-1
  6
CONTINUOUS
 62
     3
100
AcDbVertex
100
AcDb2dVertex
 10
240.5708726082846
 20
38.41426898799441
 30
0.0
  0
VERTEX
  5
258
330
188
100
AcDbEntity
  8
LAY-1
  6
CONTINUOUS
 62
     3
100
AcDbVertex
100
AcDb2dVertex
 10
240.7573286965599
 20
38.31241402171791
 30
0.0
  0
VERTEX
  5
259
330
188
100
AcDbEntity
  8
LAY-1
  6
CONTINUOUS
 62
     3
100
AcDbVertex
100
AcDb2dVertex
 10
240.9465769724932
 20
38.21316728065919
 30
0.0
  0
VERTEX
  5
25A
330
188
100
AcDbEntity
  8
LAY-1
  6
CONTINUOUS
 62
     3
100
AcDbVertex
100
AcDb2dVertex
 10
241.1385444772716
 20
38.11656702632611
 30
0.0
  0
VERTEX
  5
25B
330
188
100
AcDbEntity
  8
LAY-1
  6
CONTINUOUS
 62
     3
100
AcDbVertex
100
AcDb2dVertex
 10
241.3331572037679
 20
38.02265049995565
 30
0.0
  0
VERTEX
  5
25C
330
188
100
AcDbEntity
  8
LAY-1
  6
CONTINUOUS
 62
     3
100
AcDbVertex
100
AcDb2dVertex
 10
241.5303401250712
 20
37.93145390815648
 30
0.0
  0
VERTEX
  5
25D
330
188
100
AcDbEntity
  8
LAY-1
  6
CONTINUOUS
 62
     3
100
AcDbVertex
100
AcDb2dVertex
 10
241.7300172234119
 20
37.84301240895078
 30
0.0
  0
VERTEX
  5
25E
330
188
100
AcDbEntity
  8
LAY-1
  6
CONTINUOUS
 62
     3
100
AcDbVertex
100
AcDb2dVertex
 10
241.9321115194675
 20
37.75736009822
 30
0.0
  0
VERTEX
  5
25F
330
188
100
AcDbEntity
  8
LAY-1
  6
CONTINUOUS
 62
     3
100
AcDbVertex
100
AcDb2dVertex
 10
242.1365451020399
 20
37.67452999656044
 30
0.0
  0
VERTEX
  5
260
330
188
100
AcDbEntity
  8
LAY-1
  6
CONTINUOUS
 62
     3
100
AcDbVertex
100
AcDb2dVertex
 10
242.3432391580914
 20
37.59455403655298
 30
0.0
  0
VERTEX
  5
261
330
188
100
AcDbEntity
  8
LAY-1
  6
CONTINUOUS
 62
     3
100
AcDbVertex
100
AcDb2dVertex
 10
242.5521140031288
 20
37.51746305045268
 30
0.0
  0
VERTEX
  5
262
330
188
100
AcDbEntity
  8
LAY-1
  6
CONTINUOUS
 62
     3
100
AcDbVertex
100
AcDb2dVertex
 10
242.7630891119233
 20
37.44328675830212
 30
0.0
  0
VERTEX
  5
263
330
188
100
AcDbEntity
  8
LAY-1
  6
CONTINUOUS
 62
     3
100
AcDbVertex
100
AcDb2dVertex
 10
242.9760831495542
 20
37.37205375647397
 30
0.0
  0
VERTEX
  5
264
330
188
100
AcDbEntity
  8
LAY-1
  6
CONTINUOUS
 62
     3
100
AcDbVertex
100
AcDb2dVertex
 10
243.1910140027655
 20
37.30379150664639
 30
0.0
  0
VERTEX
  5
265
330
188
100
AcDbEntity
  8
LAY-1
  6
CONTINUOUS
 62
     3
100
AcDbVertex
100
AcDb2dVertex
 10
243.4077988116221
 20
37.23852632521613
 30
0.0
  0
VERTEX
  5
266
330
188
100
AcDbEntity
  8
LAY-1
  6
CONTINUOUS
 62
     3
100
AcDbVertex
100
AcDb2dVertex
 10
243.6263540014533
 20
37.17628337315303
 30
0.0
  0
VERTEX
  5
267
330
188
100
AcDbEntity
  8
LAY-1
  6
CONTINUOUS
 62
     3
100
AcDbVertex
100
AcDb2dVertex
 10
243.846595315073
 20
37.11708664629994
 30
0.0
  0
VERTEX
  5
268
330
188
100
AcDbEntity
  8
LAY-1
  6
CONTINUOUS
 62
     3
100
AcDbVertex
100
AcDb2dVertex
 10
244.0684378452625
 20
37.06095896612192
 30
0.0
  0
VERTEX
  5
269
330
188
100
AcDbEntity
  8
LAY-1
  6
CONTINUOUS
 62
     3
100
AcDbVertex
100
AcDb2dVertex
 10
244.2917960675032
 20
37.00792197090811
 30
0.0
  0
VERTEX
  5
26A
330
188
100
AcDbEntity
  8
LAY-1
  6
CONTINUOUS
 62
     3
100
AcDbVertex
100
AcDb2dVertex
 10
244.5165838729489
 20
36.95799610742978
 30
0.0
  0
VERTEX
  5
26B
330
188
100
AcDbEntity
  8
LAY-1
  6
CONTINUOUS
 62
     3
100
AcDbVertex
100
AcDb2dVertex
 10
244.7427146016214
 20
36.9112006230577
 30
0.0
  0
VERTEX
  5
26C
330
188
100
AcDbEntity
  8
LAY-1
  6
CONTINUOUS
 62
     3
100
AcDbVertex
100
AcDb2dVertex
 10
244.9701010758201
 20
36.86755355834185
 30
0.0
  0
VERTEX
  5
26D
330
188
100
AcDbEntity
  8
LAY-1
  6
CONTINUOUS
 62
     3
100
AcDbVertex
100
AcDb2dVertex
 10
245.1986556337309
 20
36.82707174005657
 30
0.0
  0
VERTEX
  5
26E
330
188
100
AcDbEntity
  8
LAY-1
  6
CONTINUOUS
 62
     3
100
AcDbVertex
100
AcDb2dVertex
 10
245.4282901632209
 20
36.78977077471342
 30
0.0
  0
VERTEX
  5
26F
330
188
100
AcDbEntity
  8
LAY-1
  6
CONTINUOUS
 62
     3
100
AcDbVertex
100
AcDb2dVertex
 10
245.6589161358078
 20
36.75566504254456
 30
0.0
  0
VERTEX
  5
270
330
188
100
AcDbEntity
  8
LAY-1
  6
CONTINUOUS
 62
     3
100
AcDbVertex
100
AcDb2dVertex
 10
245.8904446407887
 20
36.724767691959
 30
0.0
  0
VERTEX
  5
271
330
188
100
AcDbEntity
  8
LAY-1
  6
CONTINUOUS
 62
     3
100
AcDbVertex
100
AcDb2dVertex
 10
246.1227864195179
 20
36.69709063447354
 30
0.0
  0
VERTEX
  5
272
330
188
100
AcDbEntity
  8
LAY-1
  6
CONTINUOUS
 62
     3
100
AcDbVertex
100
AcDb2dVertex
 10
246.3558518998167
 20
36.6726445401207
 30
0.0
  0
VERTEX
  5
273
330
188
100
AcDbEntity
  8
LAY-1
  6
CONTINUOUS
 62
     3
100
AcDbVertex
100
AcDb2dVertex
 10
246.5895512305059
 20
36.65143883333519
 30
0.0
  0
VERTEX
  5
274
330
188
100
AcDbEntity
  8
LAY-1
  6
CONTINUOUS
 62
     3
100
AcDbVertex
100
AcDb2dVertex
 10
246.8237943160448
 20
36.63348168932069
 30
0.0
  0
VERTEX
  5
275
330
188
100
AcDbEntity
  8
LAY-1
  6
CONTINUOUS
 62
     3
100
AcDbVertex
100
AcDb2dVertex
 10
247.058490851265
 20
36.61878003089799
 30
0.0
  0
VERTEX
  5
276
330
188
100
AcDbEntity
  8
LAY-1
  6
CONTINUOUS
 62
     3
100
AcDbVertex
100
AcDb2dVertex
 10
247.2935503561845
 20
36.6073395258363
 30
0.0
  0
VERTEX
  5
277
330
188
100
AcDbEntity
  8
LAY-1
  6
CONTINUOUS
 62
     3
100
AcDbVertex
100
AcDb2dVertex
 10
247.5288822108895
 20
36.59916458466812
 30
0.0
  0
VERTEX
  5
278
330
188
100
AcDbEntity
  8
LAY-1
  6
CONTINUOUS
 62
     3
100
AcDbVertex
100
AcDb2dVertex
 10
247.7643956904703
 20
36.59425835898884
 30
0.0
  0
VERTEX
  5
279
330
188
100
AcDbEntity
  8
LAY-1
  6
CONTINUOUS
 62
     3
100
AcDbVertex
100
AcDb2dVertex
 10
247.9999999999974
 20
36.59262274024186
 30
0.0
  0
VERTEX
  5
27A
330
188
100
AcDbEntity
  8
LAY-1
  6
CONTINUOUS
 62
     3
100
AcDbVertex
100
AcDb2dVertex
 10
248.2356043095245
 20
36.59425835898938
 30
0.0
  0
VERTEX
  5
27B
330
188
100
AcDbEntity
  8
LAY-1
  6
CONTINUOUS
 62
     3
100
AcDbVertex
100
AcDb2dVertex
 10
248.4711177891053
 20
36.59916458466924
 30
0.0
  0
VERTEX
  5
27C
330
188
100
AcDbEntity
  8
LAY-1
  6
CONTINUOUS
 62
     3
100
AcDbVertex
100
AcDb2dVertex
 10
248.7064496438102
 20
36.60733952583799
 30
0.0
  0
VERTEX
  5
27D
330
188
100
AcDbEntity
  8
LAY-1
  6
CONTINUOUS
 62
     3
100
AcDbVertex
100
AcDb2dVertex
 10
248.9415091487296
 20
36.61878003090023
 30
0.0
  0
VERTEX
  5
27E
330
188
100
AcDbEntity
  8
LAY-1
  6
CONTINUOUS
 62
     3
100
AcDbVertex
100
AcDb2dVertex
 10
249.1762056839497
 20
36.63348168932349
 30
0.0
  0
VERTEX
  5
27F
330
188
100
AcDbEntity
  8
LAY-1
  6
CONTINUOUS
 62
     3
100
AcDbVertex
100
AcDb2dVertex
 10
249.4104487694884
 20
36.65143883333855
 30
0.0
  0
VERTEX
  5
280
330
188
100
AcDbEntity
  8
LAY-1
  6
CONTINUOUS
 62
     3
100
AcDbVertex
100
AcDb2dVertex
 10
249.6441481001774
 20
36.67264454012459
 30
0.0
  0
VERTEX
  5
281
330
188
100
AcDbEntity
  8
LAY-1
  6
CONTINUOUS
 62
     3
100
AcDbVertex
100
AcDb2dVertex
 10
249.877213580476
 20
36.69709063447797
 30
0.0
  0
VERTEX
  5
282
330
188
100
AcDbEntity
  8
LAY-1
  6
CONTINUOUS
 62
     3
100
AcDbVertex
100
AcDb2dVertex
 10
250.1095553592049
 20
36.72476769196396
 30
0.0
  0
VERTEX
  5
283
330
188
100
AcDbEntity
  8
LAY-1
  6
CONTINUOUS
 62
     3
100
AcDbVertex
100
AcDb2dVertex
 10
250.3410838641856
 20
36.75566504255004
 30
0.0
  0
VERTEX
  5
284
330
188
100
AcDbEntity
  8
LAY-1
  6
CONTINUOUS
 62
     3
100
AcDbVertex
100
AcDb2dVertex
 10
250.5717098367721
 20
36.78977077471941
 30
0.0
  0
VERTEX
  5
285
330
188
100
AcDbEntity
  8
LAY-1
  6
CONTINUOUS
 62
     3
100
AcDbVertex
100
AcDb2dVertex
 10
250.8013443662617
 20
36.82707174006308
 30
0.0
  0
VERTEX
  5
286
330
188
100
AcDbEntity
  8
LAY-1
  6
CONTINUOUS
 62
     3
100
AcDbVertex
100
AcDb2dVertex
 10
251.0298989241721
 20
36.86755355834885
 30
0.0
  0
VERTEX
  5
287
330
188
100
AcDbEntity
  8
LAY-1
  6
CONTINUOUS
 62
     3
100
AcDbVertex
100
AcDb2dVertex
 10
251.2572853983705
 20
36.91120062306516
 30
0.0
  0
VERTEX
  5
288
330
188
100
AcDbEntity
  8
LAY-1
  6
CONTINUOUS
 62
     3
100
AcDbVertex
100
AcDb2dVertex
 10
251.4834161270426
 20
36.95799610743774
 30
0.0
  0
VERTEX
  5
289
330
188
100
AcDbEntity
  8
LAY-1
  6
CONTINUOUS
 62
     3
100
AcDbVertex
100
AcDb2dVertex
 10
251.7082039324877
 20
37.00792197091653
 30
0.0
  0
VERTEX
  5
28A
330
188
100
AcDbEntity
  8
LAY-1
  6
CONTINUOUS
 62
     3
100
AcDbVertex
100
AcDb2dVertex
 10
251.931562154728
 20
37.06095896613078
 30
0.0
  0
VERTEX
  5
28B
330
188
100
AcDbEntity
  8
LAY-1
  6
CONTINUOUS
 62
     3
100
AcDbVertex
100
AcDb2dVertex
 10
252.1534046849169
 20
37.11708664630925
 30
0.0
  0
VERTEX
  5
28C
330
188
100
AcDbEntity
  8
LAY-1
  6
CONTINUOUS
 62
     3
100
AcDbVertex
100
AcDb2dVertex
 10
252.3736459985362
 20
37.17628337316276
 30
0.0
  0
VERTEX
  5
28D
330
188
100
AcDbEntity
  8
LAY-1
  6
CONTINUOUS
 62
     3
100
AcDbVertex
100
AcDb2dVertex
 10
252.5922011883669
 20
37.23852632522627
 30
0.0
  0
VERTEX
  5
28E
330
188
100
AcDbEntity
  8
LAY-1
  6
CONTINUOUS
 62
     3
100
AcDbVertex
100
AcDb2dVertex
 10
252.8089859972229
 20
37.30379150665692
 30
0.0
  0
VERTEX
  5
28F
330
188
100
AcDbEntity
  8
LAY-1
  6
CONTINUOUS
 62
     3
100
AcDbVertex
100
AcDb2dVertex
 10
253.0239168504336
 20
37.37205375648487
 30
0.0
  0
VERTEX
  5
290
330
188
100
AcDbEntity
  8
LAY-1
  6
CONTINUOUS
 62
     3
100
AcDbVertex
100
AcDb2dVertex
 10
253.2369108880639
 20
37.44328675831338
 30
0.0
  0
VERTEX
  5
291
330
188
100
AcDbEntity
  8
LAY-1
  6
CONTINUOUS
 62
     3
100
AcDbVertex
100
AcDb2dVertex
 10
253.4478859968577
 20
37.51746305046427
 30
0.0
  0
VERTEX
  5
292
330
188
100
AcDbEntity
  8
LAY-1
  6
CONTINUOUS
 62
     3
100
AcDbVertex
100
AcDb2dVertex
 10
253.6567608418945
 20
37.59455403656492
 30
0.0
  0
VERTEX
  5
293
330
188
100
AcDbEntity
  8
LAY-1
  6
CONTINUOUS
 62
     3
100
AcDbVertex
100
AcDb2dVertex
 10
253.8634548979453
 20
37.67452999657266
 30
0.0
  0
VERTEX
  5
294
330
188
100
AcDbEntity
  8
LAY-1
  6
CONTINUOUS
 62
     3
100
AcDbVertex
100
AcDb2dVertex
 10
254.067888480517
 20
37.75736009823251
 30
0.0
  0
VERTEX
  5
295
330
188
100
AcDbEntity
  8
LAY-1
  6
CONTINUOUS
 62
     3
100
AcDbVertex
100
AcDb2dVertex
 10
254.269982776572
 20
37.84301240896355
 30
0.0
  0
VERTEX
  5
296
330
188
100
AcDbEntity
  8
LAY-1
  6
CONTINUOUS
 62
     3
100
AcDbVertex
100
AcDb2dVertex
 10
254.4696598749119
 20
37.93145390816953
 30
0.0
  0
VERTEX
  5
297
330
188
100
AcDbEntity
  8
LAY-1
  6
CONTINUOUS
 62
     3
100
AcDbVertex
100
AcDb2dVertex
 10
254.6668427962145
 20
38.02265049996891
 30
0.0
  0
VERTEX
  5
298
330
188
100
AcDbEntity
  8
LAY-1
  6
CONTINUOUS
 62
     3
100
AcDbVertex
100
AcDb2dVertex
 10
254.86145552271
 20
38.11656702633958
 30
0.0
  0
VERTEX
  5
299
330
188
100
AcDbEntity
  8
LAY-1
  6
CONTINUOUS
 62
     3
100
AcDbVertex
100
AcDb2dVertex
 10
255.0534230274877
 20
38.21316728067283
 30
0.0
  0
VERTEX
  5
29A
330
188
100
AcDbEntity
  8
LAY-1
  6
CONTINUOUS
 62
     3
100
AcDbVertex
100
AcDb2dVertex
 10
255.2426713034203
 20
38.31241402173173
 30
0.0
  0
VERTEX
  5
29B
330
188
100
AcDbEntity
  8
LAY-1
  6
CONTINUOUS
 62
     3
100
AcDbVertex
100
AcDb2dVertex
 10
255.4291273916948
 20
38.41426898800839
 30
0.0
  0
VERTEX
  5
29C
330
188
100
AcDbEntity
  8
LAY-1
  6
CONTINUOUS
 62
     3
100
AcDbVertex
100
AcDb2dVertex
 10
255.6127194099399
 20
38.51869291247436
 30
0.0
  0
VERTEX
  5
29D
330
188
100
AcDbEntity
  8
LAY-1
  6
CONTINUOUS
 62
     3
100
AcDbVertex
100
AcDb2dVertex
 10
255.7933765799378
 20
38.62564553771901
 30
0.0
  0
VERTEX
  5
29E
330
188
100
AcDbEntity
  8
LAY-1
  6
CONTINUOUS
 62
     3
100
AcDbVertex
100
AcDb2dVertex
 10
255.9710292549104
 20
38.73508563146936
 30
0.0
  0
VERTEX
  5
29F
330
188
100
AcDbEntity
  8
LAY-1
  6
CONTINUOUS
 62
     3
100
AcDbVertex
100
AcDb2dVertex
 10
256.1456089463698
 20
38.84697100248594
 30
0.0
  0
VERTEX
  5
2A0
330
188
100
AcDbEntity
  8
LAY-1
  6
CONTINUOUS
 62
     3
100
AcDbVertex
100
AcDb2dVertex
 10
256.3170483505216
 20
38.96125851682845
 30
0.0
  0
VERTEX
  5
2A1
330
188
100
AcDbEntity
  8
LAY-1
  6
CONTINUOUS
 62
     3
100
AcDbVertex
100
AcDb2dVertex
 10
256.4852813742119
 20
39.0779041144845
 30
0.0
  0
VERTEX
  5
2A2
330
188
100
AcDbEntity
  8
LAY-1
  6
CONTINUOUS
 62
     3
100
AcDbVertex
100
AcDb2dVertex
 10
256.6502431604079
 20
39.19686282635578
 30
0.0
  0
VERTEX
  5
2A3
330
188
100
AcDbEntity
  8
LAY-1
  6
CONTINUOUS
 62
     3
100
AcDbVertex
100
AcDb2dVertex
 10
256.8118701132006
 20
39.31808879159436
 30
0.0
  0
VERTEX
  5
2A4
330
188
100
AcDbEntity
  8
LAY-1
  6
CONTINUOUS
 62
     3
100
AcDbVertex
100
AcDb2dVertex
 10
256.970099922323
 20
39.44153527528299
 30
0.0
  0
VERTEX
  5
2A5
330
188
100
AcDbEntity
  8
LAY-1
  6
CONTINUOUS
 62
     3
100
AcDbVertex
100
AcDb2dVertex
 10
257.1248715871717
 20
39.56715468645231
 30
0.0
  0
VERTEX
  5
2A6
330
188
100
AcDbEntity
  8
LAY-1
  6
CONTINUOUS
 62
     3
100
AcDbVertex
100
AcDb2dVertex
 10
257.2761254403238
 20
39.69489859642805
 30
0.0
  0
VERTEX
  5
2A7
330
188
100
AcDbEntity
  8
LAY-1
  6
CONTINUOUS
 62
     3
100
AcDbVertex
100
AcDb2dVertex
 10
257.4238031705394
 20
39.82471775750118
 30
0.0
  0
VERTEX
  5
2A8
330
188
100
AcDbEntity
  8
LAY-1
  6
CONTINUOUS
 62
     3
100
AcDbVertex
100
AcDb2dVertex
 10
257.5678478452425
 20
39.95656212191389
 30
0.0
  0
VERTEX
  5
2A9
330
188
100
AcDbEntity
  8
LAY-1
  6
CONTINUOUS
 62
     3
100
AcDbVertex
100
AcDb2dVertex
 10
257.708203932469
 20
40.09038086115394
 30
0.0
  0
VERTEX
  5
2AA
330
188
100
AcDbEntity
  8
LAY-1
  6
CONTINUOUS
 62
     3
100
AcDbVertex
100
AcDb2dVertex
 10
257.8448173222753
 20
40.22612238554998
 30
0.0
  0
VERTEX
  5
2AB
330
188
100
AcDbEntity
  8
LAY-1
  6
CONTINUOUS
 62
     3
100
AcDbVertex
100
AcDb2dVertex
 10
257.9776353475993
 20
40.36373436416041
 30
0.0
  0
VERTEX
  5
2AC
330
188
100
AcDbEntity
  8
LAY-1
  6
CONTINUOUS
 62
     3
100
AcDbVertex
100
AcDb2dVertex
 10
258.106606804564
 20
40.50316374494791
 30
0.0
  0
VERTEX
  5
2AD
330
188
100
AcDbEntity
  8
LAY-1
  6
CONTINUOUS
 62
     3
100
AcDbVertex
100
AcDb2dVertex
 10
258.2316819722172
 20
40.64435677523203
 30
0.0
  0
VERTEX
  5
2AE
330
188
100
AcDbEntity
  8
LAY-1
  6
CONTINUOUS
 62
     3
100
AcDbVertex
100
AcDb2dVertex
 10
258.3528126317012
 20
40.78725902241184
 30
0.0
  0
VERTEX
  5
2AF
330
188
100
AcDbEntity
  8
LAY-1
  6
CONTINUOUS
 62
     3
100
AcDbVertex
100
AcDb2dVertex
 10
258.469952084841
 20
40.9318153949508
 30
0.0
  0
VERTEX
  5
2B0
330
188
100
AcDbEntity
  8
LAY-1
  6
CONTINUOUS
 62
     3
100
AcDbVertex
100
AcDb2dVertex
 10
258.5830551721475
 20
41.07797016361557
 30
0.0
  0
VERTEX
  5
2B1
330
188
100
AcDbEntity
  8
LAY-1
  6
CONTINUOUS
 62
     3
100
AcDbVertex
100
AcDb2dVertex
 10
258.6920782902274
 20
41.2256669829606
 30
0.0
  0
VERTEX
  5
2B2
330
188
100
AcDbEntity
  8
LAY-1
  6
CONTINUOUS
 62
     3
100
AcDbVertex
100
AcDb2dVertex
 10
258.7969794085934
 20
41.37484891305051
 30
0.0
  0
VERTEX
  5
2B3
330
188
100
AcDbEntity
  8
LAY-1
  6
CONTINUOUS
 62
     3
100
AcDbVertex
100
AcDb2dVertex
 10
258.8977180858674
 20
41.52545844141145
 30
0.0
  0
VERTEX
  5
2B4
330
188
100
AcDbEntity
  8
LAY-1
  6
CONTINUOUS
 62
     3
100
AcDbVertex
100
AcDb2dVertex
 10
258.9942554853719
 20
41.67743750520327
 30
0.0
  0
VERTEX
  5
2B5
330
188
100
AcDbEntity
  8
LAY-1
  6
CONTINUOUS
 62
     3
100
AcDbVertex
100
AcDb2dVertex
 10
259.0865543901015
 20
41.83072751360378
 30
0.0
  0
VERTEX
  5
2B6
330
188
100
AcDbEntity
  8
LAY-1
  6
CONTINUOUS
 62
     3
100
AcDbVertex
100
AcDb2dVertex
 10
259.1745792170716
 20
41.98526937039677
 30
0.0
  0
VERTEX
  5
2B7
330
188
100
AcDbEntity
  8
LAY-1
  6
CONTINUOUS
 62
     3
100
AcDbVertex
100
AcDb2dVertex
 10
259.2582960310356
 20
42.14100349675459
 30
0.0
  0
VERTEX
  5
2B8
330
188
100
AcDbEntity
  8
LAY-1
  6
CONTINUOUS
 62
     3
100
AcDbVertex
100
AcDb2dVertex
 10
259.3376725575682
 20
42.29786985420702
 30
0.0
  0
VERTEX
  5
2B9
330
188
100
AcDbEntity
  8
LAY-1
  6
CONTINUOUS
 62
     3
100
AcDbVertex
100
AcDb2dVertex
 10
259.4126781955075
 20
42.45580796778713
 30
0.0
  0
VERTEX
  5
2BA
330
188
100
AcDbEntity
  8
LAY-1
  6
CONTINUOUS
 62
     3
100
AcDbVertex
100
AcDb2dVertex
 10
259.483284028752
 20
42.6147569493457
 30
0.0
  0
VERTEX
  5
2BB
330
188
100
AcDbEntity
  8
LAY-1
  6
CONTINUOUS
 62
     3
100
AcDbVertex
100
AcDb2dVertex
 10
259.5494628374092
 20
42.77465552102456
 30
0.0
  0
VERTEX
  5
2BC
330
188
100
AcDbEntity
  8
LAY-1
  6
CONTINUOUS
 62
     3
100
AcDbVertex
100
AcDb2dVertex
 10
259.6111891082886
 20
42.93544203888055
 30
0.0
  0
VERTEX
  5
2BD
330
188
100
AcDbEntity
  8
LAY-1
  6
CONTINUOUS
 62
     3
100
AcDbVertex
100
AcDb2dVertex
 10
259.6684390447376
 20
43.09705451665032
 30
0.0
  0
VERTEX
  5
2BE
330
188
100
AcDbEntity
  8
LAY-1
  6
CONTINUOUS
 62
     3
100
AcDbVertex
100
AcDb2dVertex
 10
259.721190575816
 20
43.25943064964724
 30
0.0
  0
VERTEX
  5
2BF
330
188
100
AcDbEntity
  8
LAY-1
  6
CONTINUOUS
 62
     3
100
AcDbVertex
100
AcDb2dVertex
 10
259.7694233648043
 20
43.42250783878109
 30
0.0
  0
VERTEX
  5
2C0
330
188
100
AcDbEntity
  8
LAY-1
  6
CONTINUOUS
 62
     3
100
AcDbVertex
100
AcDb2dVertex
 10
259.8131188170443
 20
43.58622321469112
 30
0.0
  0
VERTEX
  5
2C1
330
188
100
AcDbEntity
  8
LAY-1
  6
CONTINUOUS
 62
     3
100
AcDbVertex
100
AcDb2dVertex
 10
259.8522600871073
 20
43.75051366198348
 30
0.0
  0
VERTEX
  5
2C2
330
188
100
AcDbEntity
  8
LAY-1
  6
CONTINUOUS
 62
     3
100
AcDbVertex
100
AcDb2dVertex
 10
259.8868320852887
 20
43.91531584356331
 30
0.0
  0
VERTEX
  5
2C3
330
188
100
AcDbEntity
  8
LAY-1
  6
CONTINUOUS
 62
     3
100
AcDbVertex
100
AcDb2dVertex
 10
259.9168214834251
 20
44.08056622505246
 30
0.0
  0
VERTEX
  5
2C4
330
188
100
AcDbEntity
  8
LAY-1
  6
CONTINUOUS
 62
     3
100
AcDbVertex
100
AcDb2dVertex
 10
259.9422167200324
 20
44.24620109928316
 30
0.0
  0
VERTEX
  5
2C5
330
188
100
AcDbEntity
  8
LAY-1
  6
CONTINUOUS
 62
     3
100
AcDbVertex
100
AcDb2dVertex
 10
259.9630080047638
 20
44.41215661085845
 30
0.0
  0
VERTEX
  5
2C6
330
188
100
AcDbEntity
  8
LAY-1
  6
CONTINUOUS
 62
     3
100
AcDbVertex
100
AcDb2dVertex
 10
259.9791873221831
 20
44.57836878076947
 30
0.0
  0
VERTEX
  5
2C7
330
188
100
AcDbEntity
  8
LAY-1
  6
CONTINUOUS
 62
     3
100
AcDbVertex
100
AcDb2dVertex
 10
259.9907484348554
 20
44.74477353106072
 30
0.0
  0
VERTEX
  5
2C8
330
188
100
AcDbEntity
  8
LAY-1
  6
CONTINUOUS
 62
     3
100
AcDbVertex
100
AcDb2dVertex
 10
259.9976868857517
 20
44.91130670953329
 30
0.0
  0
VERTEX
  5
2C9
330
188
100
AcDbEntity
  8
LAY-1
  6
CONTINUOUS
 62
     3
100
AcDbVertex
100
AcDb2dVertex
 10
259.9999999999671
 20
45.07790411447658
 30
0.0
  0
SEQEND
  5
2CA
330
188
100
AcDbEntity
  8
LAY-1
  6
CONTINUOUS
 62
     3
  0
LINE
  5
2CB
330
1F
100
AcDbEntity
  8
LAY-1
  6
CONTINUOUS
 62
     3
100
AcDbLine
 10
247.9999999999962
 20
36.03781990727545
 30
0.0
 11
249.5295182281603
 21
36.66224310915878
 31
0.0
  0
LINE
  5
2CC
330
1F
100
AcDbEntity
  8
LAY-1
  6
CONTINUOUS
 62
     3
100
AcDbLine
 10
257.5428313812001
 20
39.93366450484951
 30
0.0
 11
259.9999999999682
 21
40.93679939284628
 31
0.0
  0
LINE
  5
2CD
330
1F
100
AcDbEntity
  8
LAY-1
  6
CONTINUOUS
 62
     3
100
AcDbLine
 10
247.9999999999949
 20
36.03781990727545
 30
0.0
 11
246.4704817718314
 21
36.66224310915538
 31
0.0
  0
LINE
  5
2CE
330
1F
100
AcDbEntity
  8
LAY-1
  6
CONTINUOUS
 62
     3
100
AcDbLine
 10
238.4571686187629
 20
39.93366450484134
 30
0.0
 11
235.999999999992
 21
40.93679939283423
 31
0.0
  0
POLYLINE
  5
2CF
330
1F
100
AcDbEntity
  8
LAY-1
  6
CONTINUOUS
 62
     3
100
AcDb2dPolyline
 66
     1
 10
0.0
 20
0.0
 30
0.0
 70
   128
  0
VERTEX
  5
2D0
330
2CF
100
AcDbEntity
  8
LAY-1
  6
CONTINUOUS
 62
     3
100
AcDbVertex
100
AcDb2dVertex
 10
259.9999999999682
 20
43.17933342930135
 30
0.0
  0
VERTEX
  5
2D1
330
2CF
100
AcDbEntity
  8
LAY-1
  6
CONTINUOUS
 62
     3
100
AcDbVertex
100
AcDb2dVertex
 10
260.0742977447722
 20
43.23291168048681
 30
0.0
  0
VERTEX
  5
2D2
330
2CF
100
AcDbEntity
  8
LAY-1
  6
CONTINUOUS
 62
     3
100
AcDbVertex
100
AcDb2dVertex
 10
260.299902033046
 20
43.4021229236325
 30
0.0
  0
VERTEX
  5
2D3
330
2CF
100
AcDbEntity
  8
LAY-1
  6
CONTINUOUS
 62
     3
100
AcDbVertex
100
AcDb2dVertex
 10
260.5207644749468
 20
43.57443364044811
 30
0.0
  0
VERTEX
  5
2D4
330
2CF
100
AcDbEntity
  8
LAY-1
  6
CONTINUOUS
 62
     3
100
AcDbVertex
100
AcDb2dVertex
 10
260.7367999237988
 20
43.74977740187216
 30
0.0
  0
VERTEX
  5
2D5
330
2CF
100
AcDbEntity
  8
LAY-1
  6
CONTINUOUS
 62
     3
100
AcDbVertex
100
AcDb2dVertex
 10
260.9479250938241
 20
43.92808660954684
 30
0.0
  0
VERTEX
  5
2D6
330
2CF
100
AcDbEntity
  8
LAY-1
  6
CONTINUOUS
 62
     3
100
AcDbVertex
100
AcDb2dVertex
 10
261.1540585922507
 20
44.10929252187833
 30
0.0
  0
VERTEX
  5
2D7
330
2CF
100
AcDbEntity
  8
LAY-1
  6
CONTINUOUS
 62
     3
100
AcDbVertex
100
AcDb2dVertex
 10
261.3551209506911
 20
44.29332528053799
 30
0.0
  0
VERTEX
  5
2D8
330
2CF
100
AcDbEntity
  8
LAY-1
  6
CONTINUOUS
 62
     3
100
AcDbVertex
100
AcDb2dVertex
 10
261.5510346557786
 20
44.48011393739413
 30
0.0
  0
VERTEX
  5
2D9
330
2CF
100
AcDbEntity
  8
LAY-1
  6
CONTINUOUS
 62
     3
100
AcDbVertex
100
AcDb2dVertex
 10
261.7417241790505
 20
44.66958648186386
 30
0.0
  0
VERTEX
  5
2DA
330
2CF
100
AcDbEntity
  8
LAY-1
  6
CONTINUOUS
 62
     3
100
AcDbVertex
100
AcDb2dVertex
 10
261.9271160060658
 20
44.86166986867452
 30
0.0
  0
VERTEX
  5
2DB
330
2CF
100
AcDbEntity
  8
LAY-1
  6
CONTINUOUS
 62
     3
100
AcDbVertex
100
AcDb2dVertex
 10
262.1071386647459
 20
45.05629004602401
 30
0.0
  0
VERTEX
  5
2DC
330
2CF
100
AcDbEntity
  8
LAY-1
  6
CONTINUOUS
 62
     3
100
AcDbVertex
100
AcDb2dVertex
 10
262.2817227529291
 20
45.2533719841292
 30
0.0
  0
VERTEX
  5
2DD
330
2CF
100
AcDbEntity
  8
LAY-1
  6
CONTINUOUS
 62
     3
100
AcDbVertex
100
AcDb2dVertex
 10
262.4508009651261
 20
45.45283970415131
 30
0.0
  0
VERTEX
  5
2DE
330
2CF
100
AcDbEntity
  8
LAY-1
  6
CONTINUOUS
 62
     3
100
AcDbVertex
100
AcDb2dVertex
 10
262.6143081184674
 20
45.65461630748724
 30
0.0
  0
VERTEX
  5
2DF
330
2CF
100
AcDbEntity
  8
LAY-1
  6
CONTINUOUS
 62
     3
100
AcDbVertex
100
AcDb2dVertex
 10
262.772181177833
 20
45.85862400541542
 30
0.0
  0
VERTEX
  5
2E0
330
2CF
100
AcDbEntity
  8
LAY-1
  6
CONTINUOUS
 62
     3
100
AcDbVertex
100
AcDb2dVertex
 10
262.9243592801531
 20
46.06478414908483
 30
0.0
  0
VERTEX
  5
2E1
330
2CF
100
AcDbEntity
  8
LAY-1
  6
CONTINUOUS
 62
     3
100
AcDbVertex
100
AcDb2dVertex
 10
263.0707837578726
 20
46.27301725983565
 30
0.0
  0
VERTEX
  5
2E2
330
2CF
100
AcDbEntity
  8
LAY-1
  6
CONTINUOUS
 62
     3
100
AcDbVertex
100
AcDb2dVertex
 10
263.211398161568
 20
46.48324305983977
 30
0.0
  0
VERTEX
  5
2E3
330
2CF
100
AcDbEntity
  8
LAY-1
  6
CONTINUOUS
 62
     3
100
AcDbVertex
100
AcDb2dVertex
 10
263.3461482817099
 20
46.69538050304948
 30
0.0
  0
VERTEX
  5
2E4
330
2CF
100
AcDbEntity
  8
LAY-1
  6
CONTINUOUS
 62
     3
100
AcDbVertex
100
AcDb2dVertex
 10
263.4749821695618
 20
46.90934780644218
 30
0.0
  0
VERTEX
  5
2E5
330
2CF
100
AcDbEntity
  8
LAY-1
  6
CONTINUOUS
 62
     3
100
AcDbVertex
100
AcDb2dVertex
 10
263.5978501572077
 20
47.12506248154937
 30
0.0
  0
VERTEX
  5
2E6
330
2CF
100
AcDbEntity
  8
LAY-1
  6
CONTINUOUS
 62
     3
100
AcDbVertex
100
AcDb2dVertex
 10
263.7147048766993
 20
47.34244136625748
 30
0.0
  0
VERTEX
  5
2E7
330
2CF
100
AcDbEntity
  8
LAY-1
  6
CONTINUOUS
 62
     3
100
AcDbVertex
100
AcDb2dVertex
 10
263.8255012783179
 20
47.56140065686846
 30
0.0
  0
VERTEX
  5
2E8
330
2CF
100
AcDbEntity
  8
LAY-1
  6
CONTINUOUS
 62
     3
100
AcDbVertex
100
AcDb2dVertex
 10
263.9301966479414
 20
47.78185594040771
 30
0.0
  0
VERTEX
  5
2E9
330
2CF
100
AcDbEntity
  8
LAY-1
  6
CONTINUOUS
 62
     3
100
AcDbVertex
100
AcDb2dVertex
 10
264.0287506235121
 20
48.00372222716683
 30
0.0
  0
VERTEX
  5
2EA
330
2CF
100
AcDbEntity
  8
LAY-1
  6
CONTINUOUS
 62
     3
100
AcDbVertex
100
AcDb2dVertex
 10
264.1211252105961
 20
48.22691398346889
 30
0.0
  0
VERTEX
  5
2EB
330
2CF
100
AcDbEntity
  8
LAY-1
  6
CONTINUOUS
 62
     3
100
AcDbVertex
100
AcDb2dVertex
 10
264.2072847970318
 20
48.45134516464318
 30
0.0
  0
VERTEX
  5
2EC
330
2CF
100
AcDbEntity
  8
LAY-1
  6
CONTINUOUS
 62
     3
100
AcDbVertex
100
AcDb2dVertex
 10
264.2871961666585
 20
48.6769292481971
 30
0.0
  0
VERTEX
  5
2ED
330
2CF
100
AcDbEntity
  8
LAY-1
  6
CONTINUOUS
 62
     3
100
AcDbVertex
100
AcDb2dVertex
 10
264.360828512122
 20
48.90357926717227
 30
0.0
  0
VERTEX
  5
2EE
330
2CF
100
AcDbEntity
  8
LAY-1
  6
CONTINUOUS
 62
     3
100
AcDbVertex
100
AcDb2dVertex
 10
264.4281534467515
 20
49.13120784367189
 30
0.0
  0
VERTEX
  5
2EF
330
2CF
100
AcDbEntity
  8
LAY-1
  6
CONTINUOUS
 62
     3
100
AcDbVertex
100
AcDb2dVertex
 10
264.4891450155029
 20
49.3597272225466
 30
0.0
  0
VERTEX
  5
2F0
330
2CF
100
AcDbEntity
  8
LAY-1
  6
CONTINUOUS
 62
     3
100
AcDbVertex
100
AcDb2dVertex
 10
264.5437797049658
 20
49.58904930522579
 30
0.0
  0
VERTEX
  5
2F1
330
2CF
100
AcDbEntity
  8
LAY-1
  6
CONTINUOUS
 62
     3
100
AcDbVertex
100
AcDb2dVertex
 10
264.5920364524271
 20
49.81908568368123
 30
0.0
  0
VERTEX
  5
2F2
330
2CF
100
AcDbEntity
  8
LAY-1
  6
CONTINUOUS
 62
     3
100
AcDbVertex
100
AcDb2dVertex
 10
264.6338966539921
 20
50.04974767451009
 30
0.0
  0
VERTEX
  5
2F3
330
2CF
100
AcDbEntity
  8
LAY-1
  6
CONTINUOUS
 62
     3
100
AcDbVertex
100
AcDb2dVertex
 10
264.6693441717564
 20
50.28094635312407
 30
0.0
  0
VERTEX
  5
2F4
330
2CF
100
AcDbEntity
  8
LAY-1
  6
CONTINUOUS
 62
     3
100
AcDbVertex
100
AcDb2dVertex
 10
264.6983653400269
 20
50.51259258803147
 30
0.0
  0
VERTEX
  5
2F5
330
2CF
100
AcDbEntity
  8
LAY-1
  6
CONTINUOUS
 62
     3
100
AcDbVertex
100
AcDb2dVertex
 10
264.7209489705909
 20
50.74459707519915
 30
0.0
  0
VERTEX
  5
2F6
330
2CF
100
AcDbEntity
  8
LAY-1
  6
CONTINUOUS
 62
     3
100
AcDbVertex
100
AcDb2dVertex
 10
264.737086357029
 20
50.97687037248092
 30
0.0
  0
VERTEX
  5
2F7
330
2CF
100
AcDbEntity
  8
LAY-1
  6
CONTINUOUS
 62
     3
100
AcDbVertex
100
AcDb2dVertex
 10
264.7467712780714
 20
51.20932293409912
 30
0.0
  0
VERTEX
  5
2F8
330
2CF
100
AcDbEntity
  8
LAY-1
  6
CONTINUOUS
 62
     3
100
AcDbVertex
100
AcDb2dVertex
 10
264.7499999999968
 20
51.441865145166
 30
0.0
  0
SEQEND
  5
2F9
330
2CF
100
AcDbEntity
  8
LAY-1
  6
CONTINUOUS
 62
     3
  0
POLYLINE
  5
2FA
330
1F
100
AcDbEntity
  8
LAY-1
  6
CONTINUOUS
 62
     3
100
AcDb2dPolyline
 66
     1
 10
0.0
 20
0.0
 30
0.0
 70
   128
  0
VERTEX
  5
2FB
330
2FA
100
AcDbEntity
  8
LAY-1
  6
CONTINUOUS
 62
     3
100
AcDbVertex
100
AcDb2dVertex
 10
264.7499999999968
 20
51.441865145166
 30
0.0
  0
VERTEX
  5
2FC
330
2FA
100
AcDbEntity
  8
LAY-1
  6
CONTINUOUS
 62
     3
100
AcDbVertex
100
AcDb2dVertex
 10
264.7467712780713
 20
51.67440735623321
 30
0.0
  0
VERTEX
  5
2FD
330
2FA
100
AcDbEntity
  8
LAY-1
  6
CONTINUOUS
 62
     3
100
AcDbVertex
100
AcDb2dVertex
 10
264.7370863570287
 20
51.90685991785141
 30
0.0
  0
VERTEX
  5
2FE
330
2FA
100
AcDbEntity
  8
LAY-1
  6
CONTINUOUS
 62
     3
100
AcDbVertex
100
AcDb2dVertex
 10
264.7209489705906
 20
52.13913321513316
 30
0.0
  0
VERTEX
  5
2FF
330
2FA
100
AcDbEntity
  8
LAY-1
  6
CONTINUOUS
 62
     3
100
AcDbVertex
100
AcDb2dVertex
 10
264.6983653400264
 20
52.37113770230084
 30
0.0
  0
VERTEX
  5
300
330
2FA
100
AcDbEntity
  8
LAY-1
  6
CONTINUOUS
 62
     3
100
AcDbVertex
100
AcDb2dVertex
 10
264.6693441717558
 20
52.60278393720823
 30
0.0
  0
VERTEX
  5
301
330
2FA
100
AcDbEntity
  8
LAY-1
  6
CONTINUOUS
 62
     3
100
AcDbVertex
100
AcDb2dVertex
 10
264.6338966539915
 20
52.83398261582217
 30
0.0
  0
VERTEX
  5
302
330
2FA
100
AcDbEntity
  8
LAY-1
  6
CONTINUOUS
 62
     3
100
AcDbVertex
100
AcDb2dVertex
 10
264.5920364524263
 20
53.06464460665102
 30
0.0
  0
VERTEX
  5
303
330
2FA
100
AcDbEntity
  8
LAY-1
  6
CONTINUOUS
 62
     3
100
AcDbVertex
100
AcDb2dVertex
 10
264.5437797049649
 20
53.29468098510646
 30
0.0
  0
VERTEX
  5
304
330
2FA
100
AcDbEntity
  8
LAY-1
  6
CONTINUOUS
 62
     3
100
AcDbVertex
100
AcDb2dVertex
 10
264.489145015502
 20
53.52400306778561
 30
0.0
  0
VERTEX
  5
305
330
2FA
100
AcDbEntity
  8
LAY-1
  6
CONTINUOUS
 62
     3
100
AcDbVertex
100
AcDb2dVertex
 10
264.4281534467504
 20
53.75252244666029
 30
0.0
  0
VERTEX
  5
306
330
2FA
100
AcDbEntity
  8
LAY-1
  6
CONTINUOUS
 62
     3
100
AcDbVertex
100
AcDb2dVertex
 10
264.3608285121209
 20
53.98015102315988
 30
0.0
  0
VERTEX
  5
307
330
2FA
100
AcDbEntity
  8
LAY-1
  6
CONTINUOUS
 62
     3
100
AcDbVertex
100
AcDb2dVertex
 10
264.2871961666573
 20
54.20680104213503
 30
0.0
  0
VERTEX
  5
308
330
2FA
100
AcDbEntity
  8
LAY-1
  6
CONTINUOUS
 62
     3
100
AcDbVertex
100
AcDb2dVertex
 10
264.2072847970305
 20
54.43238512568892
 30
0.0
  0
VERTEX
  5
309
330
2FA
100
AcDbEntity
  8
LAY-1
  6
CONTINUOUS
 62
     3
100
AcDbVertex
100
AcDb2dVertex
 10
264.1211252105948
 20
54.65681630686316
 30
0.0
  0
VERTEX
  5
30A
330
2FA
100
AcDbEntity
  8
LAY-1
  6
CONTINUOUS
 62
     3
100
AcDbVertex
100
AcDb2dVertex
 10
264.0287506235106
 20
54.88000806316519
 30
0.0
  0
VERTEX
  5
30B
330
2FA
100
AcDbEntity
  8
LAY-1
  6
CONTINUOUS
 62
     3
100
AcDbVertex
100
AcDb2dVertex
 10
263.9301966479399
 20
55.10187434992427
 30
0.0
  0
VERTEX
  5
30C
330
2FA
100
AcDbEntity
  8
LAY-1
  6
CONTINUOUS
 62
     3
100
AcDbVertex
100
AcDb2dVertex
 10
263.8255012783162
 20
55.32232963346345
 30
0.0
  0
VERTEX
  5
30D
330
2FA
100
AcDbEntity
  8
LAY-1
  6
CONTINUOUS
 62
     3
100
AcDbVertex
100
AcDb2dVertex
 10
263.7147048766975
 20
55.54128892407439
 30
0.0
  0
VERTEX
  5
30E
330
2FA
100
AcDbEntity
  8
LAY-1
  6
CONTINUOUS
 62
     3
100
AcDbVertex
100
AcDb2dVertex
 10
263.5978501572059
 20
55.75866780878244
 30
0.0
  0
VERTEX
  5
30F
330
2FA
100
AcDbEntity
  8
LAY-1
  6
CONTINUOUS
 62
     3
100
AcDbVertex
100
AcDb2dVertex
 10
263.4749821695599
 20
55.97438248388958
 30
0.0
  0
VERTEX
  5
310
330
2FA
100
AcDbEntity
  8
LAY-1
  6
CONTINUOUS
 62
     3
100
AcDbVertex
100
AcDb2dVertex
 10
263.3461482817079
 20
56.18834978728224
 30
0.0
  0
VERTEX
  5
311
330
2FA
100
AcDbEntity
  8
LAY-1
  6
CONTINUOUS
 62
     3
100
AcDbVertex
100
AcDb2dVertex
 10
263.211398161566
 20
56.40048723049189
 30
0.0
  0
VERTEX
  5
312
330
2FA
100
AcDbEntity
  8
LAY-1
  6
CONTINUOUS
 62
     3
100
AcDbVertex
100
AcDb2dVertex
 10
263.0707837578705
 20
56.61071303049594
 30
0.0
  0
VERTEX
  5
313
330
2FA
100
AcDbEntity
  8
LAY-1
  6
CONTINUOUS
 62
     3
100
AcDbVertex
100
AcDb2dVertex
 10
262.9243592801508
 20
56.81894614124669
 30
0.0
  0
VERTEX
  5
314
330
2FA
100
AcDbEntity
  8
LAY-1
  6
CONTINUOUS
 62
     3
100
AcDbVertex
100
AcDb2dVertex
 10
262.7721811778306
 20
57.02510628491603
 30
0.0
  0
VERTEX
  5
315
330
2FA
100
AcDbEntity
  8
LAY-1
  6
CONTINUOUS
 62
     3
100
AcDbVertex
100
AcDb2dVertex
 10
262.614308118465
 20
57.22911398284418
 30
0.0
  0
VERTEX
  5
316
330
2FA
100
AcDbEntity
  8
LAY-1
  6
CONTINUOUS
 62
     3
100
AcDbVertex
100
AcDb2dVertex
 10
262.4508009651237
 20
57.43089058618005
 30
0.0
  0
VERTEX
  5
317
330
2FA
100
AcDbEntity
  8
LAY-1
  6
CONTINUOUS
 62
     3
100
AcDbVertex
100
AcDb2dVertex
 10
262.2817227529267
 20
57.63035830620209
 30
0.0
  0
VERTEX
  5
318
330
2FA
100
AcDbEntity
  8
LAY-1
  6
CONTINUOUS
 62
     3
100
AcDbVertex
100
AcDb2dVertex
 10
262.1071386647434
 20
57.82744024430722
 30
0.0
  0
VERTEX
  5
319
330
2FA
100
AcDbEntity
  8
LAY-1
  6
CONTINUOUS
 62
     3
100
AcDbVertex
100
AcDb2dVertex
 10
261.9271160060632
 20
58.02206042165663
 30
0.0
  0
VERTEX
  5
31A
330
2FA
100
AcDbEntity
  8
LAY-1
  6
CONTINUOUS
 62
     3
100
AcDbVertex
100
AcDb2dVertex
 10
261.741724179048
 20
58.21414380846721
 30
0.0
  0
VERTEX
  5
31B
330
2FA
100
AcDbEntity
  8
LAY-1
  6
CONTINUOUS
 62
     3
100
AcDbVertex
100
AcDb2dVertex
 10
261.551034655776
 20
58.40361635293688
 30
0.0
  0
VERTEX
  5
31C
330
2FA
100
AcDbEntity
  8
LAY-1
  6
CONTINUOUS
 62
     3
100
AcDbVertex
100
AcDb2dVertex
 10
261.3551209506884
 20
58.59040500979296
 30
0.0
  0
VERTEX
  5
31D
330
2FA
100
AcDbEntity
  8
LAY-1
  6
CONTINUOUS
 62
     3
100
AcDbVertex
100
AcDb2dVertex
 10
261.154058592248
 20
58.77443776845254
 30
0.0
  0
VERTEX
  5
31E
330
2FA
100
AcDbEntity
  8
LAY-1
  6
CONTINUOUS
 62
     3
100
AcDbVertex
100
AcDb2dVertex
 10
260.9479250938214
 20
58.95564368078396
 30
0.0
  0
VERTEX
  5
31F
330
2FA
100
AcDbEntity
  8
LAY-1
  6
CONTINUOUS
 62
     3
100
AcDbVertex
100
AcDb2dVertex
 10
260.7367999237961
 20
59.13395288845855
 30
0.0
  0
VERTEX
  5
320
330
2FA
100
AcDbEntity
  8
LAY-1
  6
CONTINUOUS
 62
     3
100
AcDbVertex
100
AcDb2dVertex
 10
260.520764474944
 20
59.30929664988253
 30
0.0
  0
VERTEX
  5
321
330
2FA
100
AcDbEntity
  8
LAY-1
  6
CONTINUOUS
 62
     3
100
AcDbVertex
100
AcDb2dVertex
 10
260.2999020330433
 20
59.48160736669806
 30
0.0
  0
VERTEX
  5
322
330
2FA
100
AcDbEntity
  8
LAY-1
  6
CONTINUOUS
 62
     3
100
AcDbVertex
100
AcDb2dVertex
 10
260.0742977447694
 20
59.65081860984368
 30
0.0
  0
VERTEX
  5
323
330
2FA
100
AcDbEntity
  8
LAY-1
  6
CONTINUOUS
 62
     3
100
AcDbVertex
100
AcDb2dVertex
 10
259.8440385848702
 20
59.81686514516409
 30
0.0
  0
VERTEX
  5
324
330
2FA
100
AcDbEntity
  8
LAY-1
  6
CONTINUOUS
 62
     3
100
AcDbVertex
100
AcDb2dVertex
 10
259.6092133226349
 20
59.97968295855909
 30
0.0
  0
VERTEX
  5
325
330
2FA
100
AcDbEntity
  8
LAY-1
  6
CONTINUOUS
 62
     3
100
AcDbVertex
100
AcDb2dVertex
 10
259.3699124876723
 20
60.13920928066224
 30
0.0
  0
VERTEX
  5
326
330
2FA
100
AcDbEntity
  8
LAY-1
  6
CONTINUOUS
 62
     3
100
AcDbVertex
100
AcDb2dVertex
 10
259.1262283350095
 20
60.29538261103964
 30
0.0
  0
VERTEX
  5
327
330
2FA
100
AcDbEntity
  8
LAY-1
  6
CONTINUOUS
 62
     3
100
AcDbVertex
100
AcDb2dVertex
 10
258.8782548095261
 20
60.44814274189953
 30
0.0
  0
VERTEX
  5
328
330
2FA
100
AcDbEntity
  8
LAY-1
  6
CONTINUOUS
 62
     3
100
AcDbVertex
100
AcDb2dVertex
 10
258.6260875097366
 20
60.59743078130355
 30
0.0
  0
VERTEX
  5
329
330
2FA
100
AcDbEntity
  8
LAY-1
  6
CONTINUOUS
 62
     3
100
AcDbVertex
100
AcDb2dVertex
 10
258.3698236509352
 20
60.74318917587068
 30
0.0
  0
VERTEX
  5
32A
330
2FA
100
AcDbEntity
  8
LAY-1
  6
CONTINUOUS
 62
     3
100
AcDbVertex
100
AcDb2dVertex
 10
258.1095620277179
 20
60.88536173296517
 30
0.0
  0
VERTEX
  5
32B
330
2FA
100
AcDbEntity
  8
LAY-1
  6
CONTINUOUS
 62
     3
100
AcDbVertex
100
AcDb2dVertex
 10
257.8454029758946
 20
61.02389364235989
 30
0.0
  0
VERTEX
  5
32C
330
2FA
100
AcDbEntity
  8
LAY-1
  6
CONTINUOUS
 62
     3
100
AcDbVertex
100
AcDb2dVertex
 10
257.5774483338081
 20
61.15873149736669
 30
0.0
  0
VERTEX
  5
32D
330
2FA
100
AcDbEntity
  8
LAY-1
  6
CONTINUOUS
 62
     3
100
AcDbVertex
100
AcDb2dVertex
 10
257.3058014030739
 20
61.2898233154257
 30
0.0
  0
VERTEX
  5
32E
330
2FA
100
AcDbEntity
  8
LAY-1
  6
CONTINUOUS
 62
     3
100
AcDbVertex
100
AcDb2dVertex
 10
257.0305669087548
 20
61.41711855814562
 30
0.0
  0
VERTEX
  5
32F
330
2FA
100
AcDbEntity
  8
LAY-1
  6
CONTINUOUS
 62
     3
100
AcDbVertex
100
AcDb2dVertex
 10
256.7518509589878
 20
61.54056815078724
 30
0.0
  0
VERTEX
  5
330
330
2FA
100
AcDbEntity
  8
LAY-1
  6
CONTINUOUS
 62
     3
100
AcDbVertex
100
AcDb2dVertex
 10
256.4697610040769
 20
61.66012450118257
 30
0.0
  0
VERTEX
  5
331
330
2FA
100
AcDbEntity
  8
LAY-1
  6
CONTINUOUS
 62
     3
100
AcDbVertex
100
AcDb2dVertex
 10
256.1844057950697
 20
61.77574151808268
 30
0.0
  0
VERTEX
  5
332
330
2FA
100
AcDbEntity
  8
LAY-1
  6
CONTINUOUS
 62
     3
100
AcDbVertex
100
AcDb2dVertex
 10
255.8958953418312
 20
61.88737462892673
 30
0.0
  0
VERTEX
  5
333
330
2FA
100
AcDbEntity
  8
LAY-1
  6
CONTINUOUS
 62
     3
100
AcDbVertex
100
AcDb2dVertex
 10
255.6043408706332
 20
61.99498079702541
 30
0.0
  0
VERTEX
  5
334
330
2FA
100
AcDbEntity
  8
LAY-1
  6
CONTINUOUS
 62
     3
100
AcDbVertex
100
AcDb2dVertex
 10
255.3098547812742
 20
62.09851853815258
 30
0.0
  0
VERTEX
  5
335
330
2FA
100
AcDbEntity
  8
LAY-1
  6
CONTINUOUS
 62
     3
100
AcDbVertex
100
AcDb2dVertex
 10
255.0125506037477
 20
62.19794793653805
 30
0.0
  0
VERTEX
  5
336
330
2FA
100
AcDbEntity
  8
LAY-1
  6
CONTINUOUS
 62
     3
100
AcDbVertex
100
AcDb2dVertex
 10
254.7125429544735
 20
62.29323066025605
 30
0.0
  0
VERTEX
  5
337
330
2FA
100
AcDbEntity
  8
LAY-1
  6
CONTINUOUS
 62
     3
100
AcDbVertex
100
AcDb2dVertex
 10
254.4099474921111
 20
62.38432997600282
 30
0.0
  0
VERTEX
  5
338
330
2FA
100
AcDbEntity
  8
LAY-1
  6
CONTINUOUS
 62
     3
100
AcDbVertex
100
AcDb2dVertex
 10
254.1048808729716
 20
62.47121076325795
 30
0.0
  0
VERTEX
  5
339
330
2FA
100
AcDbEntity
  8
LAY-1
  6
CONTINUOUS
 62
     3
100
AcDbVertex
100
AcDb2dVertex
 10
253.7974607060439
 20
62.5538395278241
 30
0.0
  0
VERTEX
  5
33A
330
2FA
100
AcDbEntity
  8
LAY-1
  6
CONTINUOUS
 62
     3
100
AcDbVertex
100
AcDb2dVertex
 10
253.4878055076543
 20
62.63218441473966
 30
0.0
  0
VERTEX
  5
33B
330
2FA
100
AcDbEntity
  8
LAY-1
  6
CONTINUOUS
 62
     3
100
AcDbVertex
100
AcDb2dVertex
 10
253.1760346557763
 20
62.70621522055932
 30
0.0
  0
VERTEX
  5
33C
330
2FA
100
AcDbEntity
  8
LAY-1
  6
CONTINUOUS
 62
     3
100
AcDbVertex
100
AcDb2dVertex
 10
252.8622683440083
 20
62.77590340499819
 30
0.0
  0
VERTEX
  5
33D
330
2FA
100
AcDbEntity
  8
LAY-1
  6
CONTINUOUS
 62
     3
100
AcDbVertex
100
AcDb2dVertex
 10
252.5466275352361
 20
62.84122210193464
 30
0.0
  0
VERTEX
  5
33E
330
2FA
100
AcDbEntity
  8
LAY-1
  6
CONTINUOUS
 62
     3
100
AcDbVertex
100
AcDb2dVertex
 10
252.229233915
 20
62.90214612976757
 30
0.0
  0
VERTEX
  5
33F
330
2FA
100
AcDbEntity
  8
LAY-1
  6
CONTINUOUS
 62
     3
100
AcDbVertex
100
AcDb2dVertex
 10
251.9102098445826
 20
62.95865200112453
 30
0.0
  0
VERTEX
  5
340
330
2FA
100
AcDbEntity
  8
LAY-1
  6
CONTINUOUS
 62
     3
100
AcDbVertex
100
AcDb2dVertex
 10
251.5896783138358
 20
63.01071793191645
 30
0.0
  0
VERTEX
  5
341
330
2FA
100
AcDbEntity
  8
LAY-1
  6
CONTINUOUS
 62
     3
100
AcDbVertex
100
AcDb2dVertex
 10
251.2677628937664
 20
63.05832384973589
 30
0.0
  0
VERTEX
  5
342
330
2FA
100
AcDbEntity
  8
LAY-1
  6
CONTINUOUS
 62
     3
100
AcDbVertex
100
AcDb2dVertex
 10
250.9445876888967
 20
63.10145140159531
 30
0.0
  0
VERTEX
  5
343
330
2FA
100
AcDbEntity
  8
LAY-1
  6
CONTINUOUS
 62
     3
100
AcDbVertex
100
AcDb2dVertex
 10
250.6202772894202
 20
63.1400839610025
 30
0.0
  0
VERTEX
  5
344
330
2FA
100
AcDbEntity
  8
LAY-1
  6
CONTINUOUS
 62
     3
100
AcDbVertex
100
AcDb2dVertex
 10
250.2949567231693
 20
63.17420663437043
 30
0.0
  0
VERTEX
  5
345
330
2FA
100
AcDbEntity
  8
LAY-1
  6
CONTINUOUS
 62
     3
100
AcDbVertex
100
AcDb2dVertex
 10
249.9687514074153
 20
63.20380626675893
 30
0.0
  0
VERTEX
  5
346
330
2FA
100
AcDbEntity
  8
LAY-1
  6
CONTINUOUS
 62
     3
100
AcDbVertex
100
AcDb2dVertex
 10
249.6417871005166
 20
63.22887144694628
 30
0.0
  0
VERTEX
  5
347
330
2FA
100
AcDbEntity
  8
LAY-1
  6
CONTINUOUS
 62
     3
100
AcDbVertex
100
AcDb2dVertex
 10
249.3141898534379
 20
63.24939251182836
 30
0.0
  0
VERTEX
  5
348
330
2FA
100
AcDbEntity
  8
LAY-1
  6
CONTINUOUS
 62
     3
100
AcDbVertex
100
AcDb2dVertex
 10
248.9860859611539
 20
63.26536155014404
 30
0.0
  0
VERTEX
  5
349
330
2FA
100
AcDbEntity
  8
LAY-1
  6
CONTINUOUS
 62
     3
100
AcDbVertex
100
AcDb2dVertex
 10
248.657601913961
 20
63.27677240552505
 30
0.0
  0
VERTEX
  5
34A
330
2FA
100
AcDbEntity
  8
LAY-1
  6
CONTINUOUS
 62
     3
100
AcDbVertex
100
AcDb2dVertex
 10
248.3288643487122
 20
63.28362067886945
 30
0.0
  0
VERTEX
  5
34B
330
2FA
100
AcDbEntity
  8
LAY-1
  6
CONTINUOUS
 62
     3
100
AcDbVertex
100
AcDb2dVertex
 10
247.9999999999967
 20
63.28590373003747
 30
0.0
  0
VERTEX
  5
34C
330
2FA
100
AcDbEntity
  8
LAY-1
  6
CONTINUOUS
 62
     3
100
AcDbVertex
100
AcDb2dVertex
 10
247.6711356512812
 20
63.28362067886945
 30
0.0
  0
VERTEX
  5
34D
330
2FA
100
AcDbEntity
  8
LAY-1
  6
CONTINUOUS
 62
     3
100
AcDbVertex
100
AcDb2dVertex
 10
247.3423980860324
 20
63.27677240552505
 30
0.0
  0
VERTEX
  5
34E
330
2FA
100
AcDbEntity
  8
LAY-1
  6
CONTINUOUS
 62
     3
100
AcDbVertex
100
AcDb2dVertex
 10
247.0139140388394
 20
63.26536155014401
 30
0.0
  0
VERTEX
  5
34F
330
2FA
100
AcDbEntity
  8
LAY-1
  6
CONTINUOUS
 62
     3
100
AcDbVertex
100
AcDb2dVertex
 10
246.6858101465555
 20
63.24939251182836
 30
0.0
  0
VERTEX
  5
350
330
2FA
100
AcDbEntity
  8
LAY-1
  6
CONTINUOUS
 62
     3
100
AcDbVertex
100
AcDb2dVertex
 10
246.3582128994768
 20
63.22887144694625
 30
0.0
  0
VERTEX
  5
351
330
2FA
100
AcDbEntity
  8
LAY-1
  6
CONTINUOUS
 62
     3
100
AcDbVertex
100
AcDb2dVertex
 10
246.0312485925782
 20
63.20380626675893
 30
0.0
  0
VERTEX
  5
352
330
2FA
100
AcDbEntity
  8
LAY-1
  6
CONTINUOUS
 62
     3
100
AcDbVertex
100
AcDb2dVertex
 10
245.7050432768241
 20
63.1742066343704
 30
0.0
  0
VERTEX
  5
353
330
2FA
100
AcDbEntity
  8
LAY-1
  6
CONTINUOUS
 62
     3
100
AcDbVertex
100
AcDb2dVertex
 10
245.3797227105732
 20
63.14008396100247
 30
0.0
  0
VERTEX
  5
354
330
2FA
100
AcDbEntity
  8
LAY-1
  6
CONTINUOUS
 62
     3
100
AcDbVertex
100
AcDb2dVertex
 10
245.0554123110967
 20
63.10145140159528
 30
0.0
  0
VERTEX
  5
355
330
2FA
100
AcDbEntity
  8
LAY-1
  6
CONTINUOUS
 62
     3
100
AcDbVertex
100
AcDb2dVertex
 10
244.732237106227
 20
63.05832384973586
 30
0.0
  0
VERTEX
  5
356
330
2FA
100
AcDbEntity
  8
LAY-1
  6
CONTINUOUS
 62
     3
100
AcDbVertex
100
AcDb2dVertex
 10
244.4103216861577
 20
63.01071793191642
 30
0.0
  0
VERTEX
  5
357
330
2FA
100
AcDbEntity
  8
LAY-1
  6
CONTINUOUS
 62
     3
100
AcDbVertex
100
AcDb2dVertex
 10
244.0897901554108
 20
62.9586520011245
 30
0.0
  0
VERTEX
  5
358
330
2FA
100
AcDbEntity
  8
LAY-1
  6
CONTINUOUS
 62
     3
100
AcDbVertex
100
AcDb2dVertex
 10
243.7707660849934
 20
62.90214612976757
 30
0.0
  0
VERTEX
  5
359
330
2FA
100
AcDbEntity
  8
LAY-1
  6
CONTINUOUS
 62
     3
100
AcDbVertex
100
AcDb2dVertex
 10
243.4533724647574
 20
62.84122210193464
 30
0.0
  0
VERTEX
  5
35A
330
2FA
100
AcDbEntity
  8
LAY-1
  6
CONTINUOUS
 62
     3
100
AcDbVertex
100
AcDb2dVertex
 10
243.1377316559851
 20
62.77590340499819
 30
0.0
  0
VERTEX
  5
35B
330
2FA
100
AcDbEntity
  8
LAY-1
  6
CONTINUOUS
 62
     3
100
AcDbVertex
100
AcDb2dVertex
 10
242.823965344217
 20
62.70621522055929
 30
0.0
  0
VERTEX
  5
35C
330
2FA
100
AcDbEntity
  8
LAY-1
  6
CONTINUOUS
 62
     3
100
AcDbVertex
100
AcDb2dVertex
 10
242.5121944923391
 20
62.63218441473963
 30
0.0
  0
VERTEX
  5
35D
330
2FA
100
AcDbEntity
  8
LAY-1
  6
CONTINUOUS
 62
     3
100
AcDbVertex
100
AcDb2dVertex
 10
242.2025392939495
 20
62.55383952782407
 30
0.0
  0
VERTEX
  5
35E
330
2FA
100
AcDbEntity
  8
LAY-1
  6
CONTINUOUS
 62
     3
100
AcDbVertex
100
AcDb2dVertex
 10
241.8951191270218
 20
62.47121076325792
 30
0.0
  0
VERTEX
  5
35F
330
2FA
100
AcDbEntity
  8
LAY-1
  6
CONTINUOUS
 62
     3
100
AcDbVertex
100
AcDb2dVertex
 10
241.5900525078823
 20
62.38432997600277
 30
0.0
  0
VERTEX
  5
360
330
2FA
100
AcDbEntity
  8
LAY-1
  6
CONTINUOUS
 62
     3
100
AcDbVertex
100
AcDb2dVertex
 10
241.28745704552
 20
62.29323066025602
 30
0.0
  0
VERTEX
  5
361
330
2FA
100
AcDbEntity
  8
LAY-1
  6
CONTINUOUS
 62
     3
100
AcDbVertex
100
AcDb2dVertex
 10
240.9874493962457
 20
62.19794793653802
 30
0.0
  0
VERTEX
  5
362
330
2FA
100
AcDbEntity
  8
LAY-1
  6
CONTINUOUS
 62
     3
100
AcDbVertex
100
AcDb2dVertex
 10
240.6901452187192
 20
62.09851853815253
 30
0.0
  0
VERTEX
  5
363
330
2FA
100
AcDbEntity
  8
LAY-1
  6
CONTINUOUS
 62
     3
100
AcDbVertex
100
AcDb2dVertex
 10
240.3956591293603
 20
61.99498079702538
 30
0.0
  0
VERTEX
  5
364
330
2FA
100
AcDbEntity
  8
LAY-1
  6
CONTINUOUS
 62
     3
100
AcDbVertex
100
AcDb2dVertex
 10
240.1041046581623
 20
61.88737462892669
 30
0.0
  0
VERTEX
  5
365
330
2FA
100
AcDbEntity
  8
LAY-1
  6
CONTINUOUS
 62
     3
100
AcDbVertex
100
AcDb2dVertex
 10
239.8155942049237
 20
61.77574151808264
 30
0.0
  0
VERTEX
  5
366
330
2FA
100
AcDbEntity
  8
LAY-1
  6
CONTINUOUS
 62
     3
100
AcDbVertex
100
AcDb2dVertex
 10
239.5302389959165
 20
61.66012450118254
 30
0.0
  0
VERTEX
  5
367
330
2FA
100
AcDbEntity
  8
LAY-1
  6
CONTINUOUS
 62
     3
100
AcDbVertex
100
AcDb2dVertex
 10
239.2481490410057
 20
61.54056815078719
 30
0.0
  0
VERTEX
  5
368
330
2FA
100
AcDbEntity
  8
LAY-1
  6
CONTINUOUS
 62
     3
100
AcDbVertex
100
AcDb2dVertex
 10
238.9694330912385
 20
61.4171185581456
 30
0.0
  0
VERTEX
  5
369
330
2FA
100
AcDbEntity
  8
LAY-1
  6
CONTINUOUS
 62
     3
100
AcDbVertex
100
AcDb2dVertex
 10
238.6941985969195
 20
61.28982331542566
 30
0.0
  0
VERTEX
  5
36A
330
2FA
100
AcDbEntity
  8
LAY-1
  6
CONTINUOUS
 62
     3
100
AcDbVertex
100
AcDb2dVertex
 10
238.4225516661853
 20
61.15873149736665
 30
0.0
  0
VERTEX
  5
36B
330
2FA
100
AcDbEntity
  8
LAY-1
  6
CONTINUOUS
 62
     3
100
AcDbVertex
100
AcDb2dVertex
 10
238.154597024099
 20
61.02389364235984
 30
0.0
  0
VERTEX
  5
36C
330
2FA
100
AcDbEntity
  8
LAY-1
  6
CONTINUOUS
 62
     3
100
AcDbVertex
100
AcDb2dVertex
 10
237.8904379722755
 20
60.88536173296512
 30
0.0
  0
VERTEX
  5
36D
330
2FA
100
AcDbEntity
  8
LAY-1
  6
CONTINUOUS
 62
     3
100
AcDbVertex
100
AcDb2dVertex
 10
237.6301763490581
 20
60.74318917587063
 30
0.0
  0
VERTEX
  5
36E
330
2FA
100
AcDbEntity
  8
LAY-1
  6
CONTINUOUS
 62
     3
100
AcDbVertex
100
AcDb2dVertex
 10
237.3739124902569
 20
60.59743078130351
 30
0.0
  0
VERTEX
  5
36F
330
2FA
100
AcDbEntity
  8
LAY-1
  6
CONTINUOUS
 62
     3
100
AcDbVertex
100
AcDb2dVertex
 10
237.1217451904673
 20
60.44814274189947
 30
0.0
  0
VERTEX
  5
370
330
2FA
100
AcDbEntity
  8
LAY-1
  6
CONTINUOUS
 62
     3
100
AcDbVertex
100
AcDb2dVertex
 10
236.873771664984
 20
60.29538261103959
 30
0.0
  0
VERTEX
  5
371
330
2FA
100
AcDbEntity
  8
LAY-1
  6
CONTINUOUS
 62
     3
100
AcDbVertex
100
AcDb2dVertex
 10
236.6300875123212
 20
60.13920928066218
 30
0.0
  0
VERTEX
  5
372
330
2FA
100
AcDbEntity
  8
LAY-1
  6
CONTINUOUS
 62
     3
100
AcDbVertex
100
AcDb2dVertex
 10
236.3907866773585
 20
59.97968295855903
 30
0.0
  0
VERTEX
  5
373
330
2FA
100
AcDbEntity
  8
LAY-1
  6
CONTINUOUS
 62
     3
100
AcDbVertex
100
AcDb2dVertex
 10
236.1559614151232
 20
59.81686514516404
 30
0.0
  0
VERTEX
  5
374
330
2FA
100
AcDbEntity
  8
LAY-1
  6
CONTINUOUS
 62
     3
100
AcDbVertex
100
AcDb2dVertex
 10
235.925702255224
 20
59.6508186098436
 30
0.0
  0
VERTEX
  5
375
330
2FA
100
AcDbEntity
  8
LAY-1
  6
CONTINUOUS
 62
     3
100
AcDbVertex
100
AcDb2dVertex
 10
235.7000979669502
 20
59.481607366698
 30
0.0
  0
VERTEX
  5
376
330
2FA
100
AcDbEntity
  8
LAY-1
  6
CONTINUOUS
 62
     3
100
AcDbVertex
100
AcDb2dVertex
 10
235.4792355250494
 20
59.30929664988248
 30
0.0
  0
VERTEX
  5
377
330
2FA
100
AcDbEntity
  8
LAY-1
  6
CONTINUOUS
 62
     3
100
AcDbVertex
100
AcDb2dVertex
 10
235.2632000761974
 20
59.13395288845848
 30
0.0
  0
VERTEX
  5
378
330
2FA
100
AcDbEntity
  8
LAY-1
  6
CONTINUOUS
 62
     3
100
AcDbVertex
100
AcDb2dVertex
 10
235.0520749061721
 20
58.95564368078388
 30
0.0
  0
VERTEX
  5
379
330
2FA
100
AcDbEntity
  8
LAY-1
  6
CONTINUOUS
 62
     3
100
AcDbVertex
100
AcDb2dVertex
 10
234.8459414077454
 20
58.77443776845247
 30
0.0
  0
VERTEX
  5
37A
330
2FA
100
AcDbEntity
  8
LAY-1
  6
CONTINUOUS
 62
     3
100
AcDbVertex
100
AcDb2dVertex
 10
234.644879049305
 20
58.59040500979287
 30
0.0
  0
VERTEX
  5
37B
330
2FA
100
AcDbEntity
  8
LAY-1
  6
CONTINUOUS
 62
     3
100
AcDbVertex
100
AcDb2dVertex
 10
234.4489653442175
 20
58.40361635293682
 30
0.0
  0
VERTEX
  5
37C
330
2FA
100
AcDbEntity
  8
LAY-1
  6
CONTINUOUS
 62
     3
100
AcDbVertex
100
AcDb2dVertex
 10
234.2582758209455
 20
58.21414380846714
 30
0.0
  0
VERTEX
  5
37D
330
2FA
100
AcDbEntity
  8
LAY-1
  6
CONTINUOUS
 62
     3
100
AcDbVertex
100
AcDb2dVertex
 10
234.0728839939302
 20
58.02206042165655
 30
0.0
  0
VERTEX
  5
37E
330
2FA
100
AcDbEntity
  8
LAY-1
  6
CONTINUOUS
 62
     3
100
AcDbVertex
100
AcDb2dVertex
 10
233.89286133525
 20
57.82744024430712
 30
0.0
  0
VERTEX
  5
37F
330
2FA
100
AcDbEntity
  8
LAY-1
  6
CONTINUOUS
 62
     3
100
AcDbVertex
100
AcDb2dVertex
 10
233.7182772470667
 20
57.63035830620201
 30
0.0
  0
VERTEX
  5
380
330
2FA
100
AcDbEntity
  8
LAY-1
  6
CONTINUOUS
 62
     3
100
AcDbVertex
100
AcDb2dVertex
 10
233.5491990348698
 20
57.43089058617995
 30
0.0
  0
VERTEX
  5
381
330
2FA
100
AcDbEntity
  8
LAY-1
  6
CONTINUOUS
 62
     3
100
AcDbVertex
100
AcDb2dVertex
 10
233.3856918815284
 20
57.22911398284408
 30
0.0
  0
VERTEX
  5
382
330
2FA
100
AcDbEntity
  8
LAY-1
  6
CONTINUOUS
 62
     3
100
AcDbVertex
100
AcDb2dVertex
 10
233.2278188221628
 20
57.02510628491596
 30
0.0
  0
VERTEX
  5
383
330
2FA
100
AcDbEntity
  8
LAY-1
  6
CONTINUOUS
 62
     3
100
AcDbVertex
100
AcDb2dVertex
 10
233.0756407198425
 20
56.81894614124661
 30
0.0
  0
VERTEX
  5
384
330
2FA
100
AcDbEntity
  8
LAY-1
  6
CONTINUOUS
 62
     3
100
AcDbVertex
100
AcDb2dVertex
 10
232.9292162421229
 20
56.61071303049584
 30
0.0
  0
VERTEX
  5
385
330
2FA
100
AcDbEntity
  8
LAY-1
  6
CONTINUOUS
 62
     3
100
AcDbVertex
100
AcDb2dVertex
 10
232.7886018384276
 20
56.40048723049179
 30
0.0
  0
VERTEX
  5
386
330
2FA
100
AcDbEntity
  8
LAY-1
  6
CONTINUOUS
 62
     3
100
AcDbVertex
100
AcDb2dVertex
 10
232.6538517182856
 20
56.18834978728214
 30
0.0
  0
VERTEX
  5
387
330
2FA
100
AcDbEntity
  8
LAY-1
  6
CONTINUOUS
 62
     3
100
AcDbVertex
100
AcDb2dVertex
 10
232.5250178304335
 20
55.97438248388947
 30
0.0
  0
VERTEX
  5
388
330
2FA
100
AcDbEntity
  8
LAY-1
  6
CONTINUOUS
 62
     3
100
AcDbVertex
100
AcDb2dVertex
 10
232.4021498427876
 20
55.75866780878233
 30
0.0
  0
VERTEX
  5
389
330
2FA
100
AcDbEntity
  8
LAY-1
  6
CONTINUOUS
 62
     3
100
AcDbVertex
100
AcDb2dVertex
 10
232.2852951232959
 20
55.54128892407427
 30
0.0
  0
VERTEX
  5
38A
330
2FA
100
AcDbEntity
  8
LAY-1
  6
CONTINUOUS
 62
     3
100
AcDbVertex
100
AcDb2dVertex
 10
232.1744987216773
 20
55.32232963346334
 30
0.0
  0
VERTEX
  5
38B
330
2FA
100
AcDbEntity
  8
LAY-1
  6
CONTINUOUS
 62
     3
100
AcDbVertex
100
AcDb2dVertex
 10
232.0698033520536
 20
55.10187434992415
 30
0.0
  0
VERTEX
  5
38C
330
2FA
100
AcDbEntity
  8
LAY-1
  6
CONTINUOUS
 62
     3
100
AcDbVertex
100
AcDb2dVertex
 10
231.9712493764829
 20
54.88000806316506
 30
0.0
  0
VERTEX
  5
38D
330
2FA
100
AcDbEntity
  8
LAY-1
  6
CONTINUOUS
 62
     3
100
AcDbVertex
100
AcDb2dVertex
 10
231.8788747893988
 20
54.65681630686304
 30
0.0
  0
VERTEX
  5
38E
330
2FA
100
AcDbEntity
  8
LAY-1
  6
CONTINUOUS
 62
     3
100
AcDbVertex
100
AcDb2dVertex
 10
231.792715202963
 20
54.4323851256888
 30
0.0
  0
VERTEX
  5
38F
330
2FA
100
AcDbEntity
  8
LAY-1
  6
CONTINUOUS
 62
     3
100
AcDbVertex
100
AcDb2dVertex
 10
231.7128038333362
 20
54.2068010421349
 30
0.0
  0
VERTEX
  5
390
330
2FA
100
AcDbEntity
  8
LAY-1
  6
CONTINUOUS
 62
     3
100
AcDbVertex
100
AcDb2dVertex
 10
231.6391714878727
 20
53.98015102315976
 30
0.0
  0
VERTEX
  5
391
330
2FA
100
AcDbEntity
  8
LAY-1
  6
CONTINUOUS
 62
     3
100
AcDbVertex
100
AcDb2dVertex
 10
231.5718465532431
 20
53.75252244666017
 30
0.0
  0
VERTEX
  5
392
330
2FA
100
AcDbEntity
  8
LAY-1
  6
CONTINUOUS
 62
     3
100
AcDbVertex
100
AcDb2dVertex
 10
231.5108549844915
 20
53.52400306778548
 30
0.0
  0
VERTEX
  5
393
330
2FA
100
AcDbEntity
  8
LAY-1
  6
CONTINUOUS
 62
     3
100
AcDbVertex
100
AcDb2dVertex
 10
231.4562202950286
 20
53.29468098510633
 30
0.0
  0
VERTEX
  5
394
330
2FA
100
AcDbEntity
  8
LAY-1
  6
CONTINUOUS
 62
     3
100
AcDbVertex
100
AcDb2dVertex
 10
231.4079635475672
 20
53.06464460665089
 30
0.0
  0
VERTEX
  5
395
330
2FA
100
AcDbEntity
  8
LAY-1
  6
CONTINUOUS
 62
     3
100
AcDbVertex
100
AcDb2dVertex
 10
231.366103346002
 20
52.83398261582205
 30
0.0
  0
VERTEX
  5
396
330
2FA
100
AcDbEntity
  8
LAY-1
  6
CONTINUOUS
 62
     3
100
AcDbVertex
100
AcDb2dVertex
 10
231.3306558282377
 20
52.6027839372081
 30
0.0
  0
VERTEX
  5
397
330
2FA
100
AcDbEntity
  8
LAY-1
  6
CONTINUOUS
 62
     3
100
AcDbVertex
100
AcDb2dVertex
 10
231.301634659967
 20
52.3711377023007
 30
0.0
  0
VERTEX
  5
398
330
2FA
100
AcDbEntity
  8
LAY-1
  6
CONTINUOUS
 62
     3
100
AcDbVertex
100
AcDb2dVertex
 10
231.2790510294029
 20
52.13913321513303
 30
0.0
  0
VERTEX
  5
399
330
2FA
100
AcDbEntity
  8
LAY-1
  6
CONTINUOUS
 62
     3
100
AcDbVertex
100
AcDb2dVertex
 10
231.2629136429647
 20
51.90685991785128
 30
0.0
  0
VERTEX
  5
39A
330
2FA
100
AcDbEntity
  8
LAY-1
  6
CONTINUOUS
 62
     3
100
AcDbVertex
100
AcDb2dVertex
 10
231.2532287219222
 20
51.67440735623307
 30
0.0
  0
VERTEX
  5
39B
330
2FA
100
AcDbEntity
  8
LAY-1
  6
CONTINUOUS
 62
     3
100
AcDbVertex
100
AcDb2dVertex
 10
231.2499999999968
 20
51.44186514516586
 30
0.0
  0
VERTEX
  5
39C
330
2FA
100
AcDbEntity
  8
LAY-1
  6
CONTINUOUS
 62
     3
100
AcDbVertex
100
AcDb2dVertex
 10
231.2532287219221
 20
51.20932293409863
 30
0.0
  0
VERTEX
  5
39D
330
2FA
100
AcDbEntity
  8
LAY-1
  6
CONTINUOUS
 62
     3
100
AcDbVertex
100
AcDb2dVertex
 10
231.2629136429646
 20
50.97687037248043
 30
0.0
  0
VERTEX
  5
39E
330
2FA
100
AcDbEntity
  8
LAY-1
  6
CONTINUOUS
 62
     3
100
AcDbVertex
100
AcDb2dVertex
 10
231.2790510294026
 20
50.74459707519866
 30
0.0
  0
VERTEX
  5
39F
330
2FA
100
AcDbEntity
  8
LAY-1
  6
CONTINUOUS
 62
     3
100
AcDbVertex
100
AcDb2dVertex
 10
231.3016346599667
 20
50.51259258803098
 30
0.0
  0
VERTEX
  5
3A0
330
2FA
100
AcDbEntity
  8
LAY-1
  6
CONTINUOUS
 62
     3
100
AcDbVertex
100
AcDb2dVertex
 10
231.3306558282373
 20
50.28094635312357
 30
0.0
  0
VERTEX
  5
3A1
330
2FA
100
AcDbEntity
  8
LAY-1
  6
CONTINUOUS
 62
     3
100
AcDbVertex
100
AcDb2dVertex
 10
231.3661033460015
 20
50.0497476745096
 30
0.0
  0
VERTEX
  5
3A2
330
2FA
100
AcDbEntity
  8
LAY-1
  6
CONTINUOUS
 62
     3
100
AcDbVertex
100
AcDb2dVertex
 10
231.4079635475665
 20
49.81908568368075
 30
0.0
  0
VERTEX
  5
3A3
330
2FA
100
AcDbEntity
  8
LAY-1
  6
CONTINUOUS
 62
     3
100
AcDbVertex
100
AcDb2dVertex
 10
231.4562202950278
 20
49.5890493052253
 30
0.0
  0
VERTEX
  5
3A4
330
2FA
100
AcDbEntity
  8
LAY-1
  6
CONTINUOUS
 62
     3
100
AcDbVertex
100
AcDb2dVertex
 10
231.5108549844907
 20
49.35972722254611
 30
0.0
  0
VERTEX
  5
3A5
330
2FA
100
AcDbEntity
  8
LAY-1
  6
CONTINUOUS
 62
     3
100
AcDbVertex
100
AcDb2dVertex
 10
231.5718465532422
 20
49.13120784367141
 30
0.0
  0
VERTEX
  5
3A6
330
2FA
100
AcDbEntity
  8
LAY-1
  6
CONTINUOUS
 62
     3
100
AcDbVertex
100
AcDb2dVertex
 10
231.6391714878717
 20
48.9035792671718
 30
0.0
  0
VERTEX
  5
3A7
330
2FA
100
AcDbEntity
  8
LAY-1
  6
CONTINUOUS
 62
     3
100
AcDbVertex
100
AcDb2dVertex
 10
231.7128038333352
 20
48.67692924819663
 30
0.0
  0
VERTEX
  5
3A8
330
2FA
100
AcDbEntity
  8
LAY-1
  6
CONTINUOUS
 62
     3
100
AcDbVertex
100
AcDb2dVertex
 10
231.7927152029618
 20
48.4513451646427
 30
0.0
  0
VERTEX
  5
3A9
330
2FA
100
AcDbEntity
  8
LAY-1
  6
CONTINUOUS
 62
     3
100
AcDbVertex
100
AcDb2dVertex
 10
231.8788747893976
 20
48.22691398346843
 30
0.0
  0
VERTEX
  5
3AA
330
2FA
100
AcDbEntity
  8
LAY-1
  6
CONTINUOUS
 62
     3
100
AcDbVertex
100
AcDb2dVertex
 10
231.9712493764816
 20
48.00372222716636
 30
0.0
  0
VERTEX
  5
3AB
330
2FA
100
AcDbEntity
  8
LAY-1
  6
CONTINUOUS
 62
     3
100
AcDbVertex
100
AcDb2dVertex
 10
232.0698033520523
 20
47.78185594040724
 30
0.0
  0
VERTEX
  5
3AC
330
2FA
100
AcDbEntity
  8
LAY-1
  6
CONTINUOUS
 62
     3
100
AcDbVertex
100
AcDb2dVertex
 10
232.1744987216759
 20
47.56140065686802
 30
0.0
  0
VERTEX
  5
3AD
330
2FA
100
AcDbEntity
  8
LAY-1
  6
CONTINUOUS
 62
     3
100
AcDbVertex
100
AcDb2dVertex
 10
232.2852951232944
 20
47.34244136625703
 30
0.0
  0
VERTEX
  5
3AE
330
2FA
100
AcDbEntity
  8
LAY-1
  6
CONTINUOUS
 62
     3
100
AcDbVertex
100
AcDb2dVertex
 10
232.402149842786
 20
47.12506248154893
 30
0.0
  0
VERTEX
  5
3AF
330
2FA
100
AcDbEntity
  8
LAY-1
  6
CONTINUOUS
 62
     3
100
AcDbVertex
100
AcDb2dVertex
 10
232.5250178304319
 20
46.90934780644172
 30
0.0
  0
VERTEX
  5
3B0
330
2FA
100
AcDbEntity
  8
LAY-1
  6
CONTINUOUS
 62
     3
100
AcDbVertex
100
AcDb2dVertex
 10
232.6538517182839
 20
46.69538050304903
 30
0.0
  0
VERTEX
  5
3B1
330
2FA
100
AcDbEntity
  8
LAY-1
  6
CONTINUOUS
 62
     3
100
AcDbVertex
100
AcDb2dVertex
 10
232.7886018384258
 20
46.48324305983934
 30
0.0
  0
VERTEX
  5
3B2
330
2FA
100
AcDbEntity
  8
LAY-1
  6
CONTINUOUS
 62
     3
100
AcDbVertex
100
AcDb2dVertex
 10
232.9292162421212
 20
46.27301725983521
 30
0.0
  0
VERTEX
  5
3B3
330
2FA
100
AcDbEntity
  8
LAY-1
  6
CONTINUOUS
 62
     3
100
AcDbVertex
100
AcDb2dVertex
 10
233.0756407198407
 20
46.0647841490844
 30
0.0
  0
VERTEX
  5
3B4
330
2FA
100
AcDbEntity
  8
LAY-1
  6
CONTINUOUS
 62
     3
100
AcDbVertex
100
AcDb2dVertex
 10
233.2278188221609
 20
45.858624005415
 30
0.0
  0
VERTEX
  5
3B5
330
2FA
100
AcDbEntity
  8
LAY-1
  6
CONTINUOUS
 62
     3
100
AcDbVertex
100
AcDb2dVertex
 10
233.3856918815264
 20
45.65461630748683
 30
0.0
  0
VERTEX
  5
3B6
330
2FA
100
AcDbEntity
  8
LAY-1
  6
CONTINUOUS
 62
     3
100
AcDbVertex
100
AcDb2dVertex
 10
233.5491990348678
 20
45.45283970415089
 30
0.0
  0
VERTEX
  5
3B7
330
2FA
100
AcDbEntity
  8
LAY-1
  6
CONTINUOUS
 62
     3
100
AcDbVertex
100
AcDb2dVertex
 10
233.7182772470647
 20
45.25337198412878
 30
0.0
  0
VERTEX
  5
3B8
330
2FA
100
AcDbEntity
  8
LAY-1
  6
CONTINUOUS
 62
     3
100
AcDbVertex
100
AcDb2dVertex
 10
233.892861335248
 20
45.0562900460236
 30
0.0
  0
VERTEX
  5
3B9
330
2FA
100
AcDbEntity
  8
LAY-1
  6
CONTINUOUS
 62
     3
100
AcDbVertex
100
AcDb2dVertex
 10
234.0728839939281
 20
44.86166986867412
 30
0.0
  0
VERTEX
  5
3BA
330
2FA
100
AcDbEntity
  8
LAY-1
  6
CONTINUOUS
 62
     3
100
AcDbVertex
100
AcDb2dVertex
 10
234.2582758209434
 20
44.66958648186346
 30
0.0
  0
VERTEX
  5
3BB
330
2FA
100
AcDbEntity
  8
LAY-1
  6
CONTINUOUS
 62
     3
100
AcDbVertex
100
AcDb2dVertex
 10
234.4489653442153
 20
44.48011393739373
 30
0.0
  0
VERTEX
  5
3BC
330
2FA
100
AcDbEntity
  8
LAY-1
  6
CONTINUOUS
 62
     3
100
AcDbVertex
100
AcDb2dVertex
 10
234.6448790493029
 20
44.29332528053759
 30
0.0
  0
VERTEX
  5
3BD
330
2FA
100
AcDbEntity
  8
LAY-1
  6
CONTINUOUS
 62
     3
100
AcDbVertex
100
AcDb2dVertex
 10
234.8459414077433
 20
44.10929252187795
 30
0.0
  0
VERTEX
  5
3BE
330
2FA
100
AcDbEntity
  8
LAY-1
  6
CONTINUOUS
 62
     3
100
AcDbVertex
100
AcDb2dVertex
 10
235.0520749061698
 20
43.92808660954647
 30
0.0
  0
VERTEX
  5
3BF
330
2FA
100
AcDbEntity
  8
LAY-1
  6
CONTINUOUS
 62
     3
100
AcDbVertex
100
AcDb2dVertex
 10
235.2632000761952
 20
43.7497774018718
 30
0.0
  0
VERTEX
  5
3C0
330
2FA
100
AcDbEntity
  8
LAY-1
  6
CONTINUOUS
 62
     3
100
AcDbVertex
100
AcDb2dVertex
 10
235.4792355250472
 20
43.57443364044775
 30
0.0
  0
VERTEX
  5
3C1
330
2FA
100
AcDbEntity
  8
LAY-1
  6
CONTINUOUS
 62
     3
100
AcDbVertex
100
AcDb2dVertex
 10
235.7000979669479
 20
43.40212292363216
 30
0.0
  0
VERTEX
  5
3C2
330
2FA
100
AcDbEntity
  8
LAY-1
  6
CONTINUOUS
 62
     3
100
AcDbVertex
100
AcDb2dVertex
 10
235.9257022552218
 20
43.23291168048647
 30
0.0
  0
VERTEX
  5
3C3
330
2FA
100
AcDbEntity
  8
LAY-1
  6
CONTINUOUS
 62
     3
100
AcDbVertex
100
AcDb2dVertex
 10
235.999999999992
 20
43.17933342932539
 30
0.0
  0
SEQEND
  5
3C4
330
2FA
100
AcDbEntity
  8
LAY-1
  6
CONTINUOUS
 62
     3
  0
POLYLINE
  5
3C5
330
1F
100
AcDbEntity
  8
LAY-1
  6
CONTINUOUS
 62
     3
100
AcDb2dPolyline
 66
     1
 10
0.0
 20
0.0
 30
0.0
 70
   128
  0
VERTEX
  5
3C6
330
3C5
100
AcDbEntity
  8
LAY-1
  6
CONTINUOUS
 62
     3
100
AcDbVertex
100
AcDb2dVertex
 10
231.402194489493
 20
53.03285540423825
 30
0.0
  0
VERTEX
  5
3C7
330
3C5
100
AcDbEntity
  8
LAY-1
  6
CONTINUOUS
 62
     3
100
AcDbVertex
100
AcDb2dVertex
 10
231.4079635480765
 20
53.00106619901875
 30
0.0
  0
SEQEND
  5
3C8
330
3C5
100
AcDbEntity
  8
LAY-1
  6
CONTINUOUS
 62
     3
  0
POLYLINE
  5
3C9
330
1F
100
AcDbEntity
  8
LAY-1
  6
CONTINUOUS
 62
     3
100
AcDb2dPolyline
 66
     1
 10
0.0
 20
0.0
 30
0.0
 70
   128
  0
VERTEX
  5
3CA
330
3C9
100
AcDbEntity
  8
LAY-1
  6
CONTINUOUS
 62
     3
100
AcDbVertex
100
AcDb2dVertex
 10
264.7500000005068
 20
54.623845660504
 30
0.0
  0
VERTEX
  5
3CB
330
3C9
100
AcDbEntity
  8
LAY-1
  6
CONTINUOUS
 62
     3
100
AcDbVertex
100
AcDb2dVertex
 10
264.7467712785813
 20
54.85638787157121
 30
0.0
  0
VERTEX
  5
3CC
330
3C9
100
AcDbEntity
  8
LAY-1
  6
CONTINUOUS
 62
     3
100
AcDbVertex
100
AcDb2dVertex
 10
264.7370863575387
 20
55.08884043318941
 30
0.0
  0
VERTEX
  5
3CD
330
3C9
100
AcDbEntity
  8
LAY-1
  6
CONTINUOUS
 62
     3
100
AcDbVertex
100
AcDb2dVertex
 10
264.7209489711006
 20
55.32111373047116
 30
0.0
  0
VERTEX
  5
3CE
330
3C9
100
AcDbEntity
  8
LAY-1
  6
CONTINUOUS
 62
     3
100
AcDbVertex
100
AcDb2dVertex
 10
264.6983653405364
 20
55.55311821763884
 30
0.0
  0
VERTEX
  5
3CF
330
3C9
100
AcDbEntity
  8
LAY-1
  6
CONTINUOUS
 62
     3
100
AcDbVertex
100
AcDb2dVertex
 10
264.6693441722658
 20
55.78476445254623
 30
0.0
  0
VERTEX
  5
3D0
330
3C9
100
AcDbEntity
  8
LAY-1
  6
CONTINUOUS
 62
     3
100
AcDbVertex
100
AcDb2dVertex
 10
264.6338966545015
 20
56.01596313116017
 30
0.0
  0
VERTEX
  5
3D1
330
3C9
100
AcDbEntity
  8
LAY-1
  6
CONTINUOUS
 62
     3
100
AcDbVertex
100
AcDb2dVertex
 10
264.5920364529363
 20
56.24662512198902
 30
0.0
  0
VERTEX
  5
3D2
330
3C9
100
AcDbEntity
  8
LAY-1
  6
CONTINUOUS
 62
     3
100
AcDbVertex
100
AcDb2dVertex
 10
264.5437797054749
 20
56.47666150044446
 30
0.0
  0
VERTEX
  5
3D3
330
3C9
100
AcDbEntity
  8
LAY-1
  6
CONTINUOUS
 62
     3
100
AcDbVertex
100
AcDb2dVertex
 10
264.489145016012
 20
56.7059835831236
 30
0.0
  0
VERTEX
  5
3D4
330
3C9
100
AcDbEntity
  8
LAY-1
  6
CONTINUOUS
 62
     3
100
AcDbVertex
100
AcDb2dVertex
 10
264.4281534472604
 20
56.93450296199829
 30
0.0
  0
VERTEX
  5
3D5
330
3C9
100
AcDbEntity
  8
LAY-1
  6
CONTINUOUS
 62
     3
100
AcDbVertex
100
AcDb2dVertex
 10
264.3608285126309
 20
57.16213153849788
 30
0.0
  0
VERTEX
  5
3D6
330
3C9
100
AcDbEntity
  8
LAY-1
  6
CONTINUOUS
 62
     3
100
AcDbVertex
100
AcDb2dVertex
 10
264.2871961671673
 20
57.38878155747302
 30
0.0
  0
VERTEX
  5
3D7
330
3C9
100
AcDbEntity
  8
LAY-1
  6
CONTINUOUS
 62
     3
100
AcDbVertex
100
AcDb2dVertex
 10
264.2072847975405
 20
57.61436564102691
 30
0.0
  0
VERTEX
  5
3D8
330
3C9
100
AcDbEntity
  8
LAY-1
  6
CONTINUOUS
 62
     3
100
AcDbVertex
100
AcDb2dVertex
 10
264.1211252111048
 20
57.83879682220115
 30
0.0
  0
VERTEX
  5
3D9
330
3C9
100
AcDbEntity
  8
LAY-1
  6
CONTINUOUS
 62
     3
100
AcDbVertex
100
AcDb2dVertex
 10
264.0287506240206
 20
58.06198857850318
 30
0.0
  0
VERTEX
  5
3DA
330
3C9
100
AcDbEntity
  8
LAY-1
  6
CONTINUOUS
 62
     3
100
AcDbVertex
100
AcDb2dVertex
 10
263.9301966484499
 20
58.28385486526226
 30
0.0
  0
VERTEX
  5
3DB
330
3C9
100
AcDbEntity
  8
LAY-1
  6
CONTINUOUS
 62
     3
100
AcDbVertex
100
AcDb2dVertex
 10
263.8255012788262
 20
58.50431014880145
 30
0.0
  0
VERTEX
  5
3DC
330
3C9
100
AcDbEntity
  8
LAY-1
  6
CONTINUOUS
 62
     3
100
AcDbVertex
100
AcDb2dVertex
 10
263.7147048772075
 20
58.72326943941238
 30
0.0
  0
VERTEX
  5
3DD
330
3C9
100
AcDbEntity
  8
LAY-1
  6
CONTINUOUS
 62
     3
100
AcDbVertex
100
AcDb2dVertex
 10
263.5978501577159
 20
58.94064832412044
 30
0.0
  0
VERTEX
  5
3DE
330
3C9
100
AcDbEntity
  8
LAY-1
  6
CONTINUOUS
 62
     3
100
AcDbVertex
100
AcDb2dVertex
 10
263.4749821700699
 20
59.15636299922758
 30
0.0
  0
VERTEX
  5
3DF
330
3C9
100
AcDbEntity
  8
LAY-1
  6
CONTINUOUS
 62
     3
100
AcDbVertex
100
AcDb2dVertex
 10
263.3461482822179
 20
59.37033030262024
 30
0.0
  0
VERTEX
  5
3E0
330
3C9
100
AcDbEntity
  8
LAY-1
  6
CONTINUOUS
 62
     3
100
AcDbVertex
100
AcDb2dVertex
 10
263.211398162076
 20
59.58246774582989
 30
0.0
  0
VERTEX
  5
3E1
330
3C9
100
AcDbEntity
  8
LAY-1
  6
CONTINUOUS
 62
     3
100
AcDbVertex
100
AcDb2dVertex
 10
263.0707837583805
 20
59.79269354583394
 30
0.0
  0
VERTEX
  5
3E2
330
3C9
100
AcDbEntity
  8
LAY-1
  6
CONTINUOUS
 62
     3
100
AcDbVertex
100
AcDb2dVertex
 10
262.9243592806608
 20
60.00092665658469
 30
0.0
  0
VERTEX
  5
3E3
330
3C9
100
AcDbEntity
  8
LAY-1
  6
CONTINUOUS
 62
     3
100
AcDbVertex
100
AcDb2dVertex
 10
262.7721811783406
 20
60.20708680025403
 30
0.0
  0
VERTEX
  5
3E4
330
3C9
100
AcDbEntity
  8
LAY-1
  6
CONTINUOUS
 62
     3
100
AcDbVertex
100
AcDb2dVertex
 10
262.614308118975
 20
60.41109449818218
 30
0.0
  0
VERTEX
  5
3E5
330
3C9
100
AcDbEntity
  8
LAY-1
  6
CONTINUOUS
 62
     3
100
AcDbVertex
100
AcDb2dVertex
 10
262.4508009656337
 20
60.61287110151805
 30
0.0
  0
VERTEX
  5
3E6
330
3C9
100
AcDbEntity
  8
LAY-1
  6
CONTINUOUS
 62
     3
100
AcDbVertex
100
AcDb2dVertex
 10
262.2817227534367
 20
60.81233882154009
 30
0.0
  0
VERTEX
  5
3E7
330
3C9
100
AcDbEntity
  8
LAY-1
  6
CONTINUOUS
 62
     3
100
AcDbVertex
100
AcDb2dVertex
 10
262.1071386652534
 20
61.00942075964522
 30
0.0
  0
VERTEX
  5
3E8
330
3C9
100
AcDbEntity
  8
LAY-1
  6
CONTINUOUS
 62
     3
100
AcDbVertex
100
AcDb2dVertex
 10
261.9271160065732
 20
61.20404093699463
 30
0.0
  0
VERTEX
  5
3E9
330
3C9
100
AcDbEntity
  8
LAY-1
  6
CONTINUOUS
 62
     3
100
AcDbVertex
100
AcDb2dVertex
 10
261.741724179558
 20
61.39612432380521
 30
0.0
  0
VERTEX
  5
3EA
330
3C9
100
AcDbEntity
  8
LAY-1
  6
CONTINUOUS
 62
     3
100
AcDbVertex
100
AcDb2dVertex
 10
261.551034656286
 20
61.58559686827488
 30
0.0
  0
VERTEX
  5
3EB
330
3C9
100
AcDbEntity
  8
LAY-1
  6
CONTINUOUS
 62
     3
100
AcDbVertex
100
AcDb2dVertex
 10
261.3551209511984
 20
61.77238552513096
 30
0.0
  0
VERTEX
  5
3EC
330
3C9
100
AcDbEntity
  8
LAY-1
  6
CONTINUOUS
 62
     3
100
AcDbVertex
100
AcDb2dVertex
 10
261.154058592758
 20
61.95641828379054
 30
0.0
  0
VERTEX
  5
3ED
330
3C9
100
AcDbEntity
  8
LAY-1
  6
CONTINUOUS
 62
     3
100
AcDbVertex
100
AcDb2dVertex
 10
260.9479250943314
 20
62.13762419612196
 30
0.0
  0
VERTEX
  5
3EE
330
3C9
100
AcDbEntity
  8
LAY-1
  6
CONTINUOUS
 62
     3
100
AcDbVertex
100
AcDb2dVertex
 10
260.7367999243061
 20
62.31593340379655
 30
0.0
  0
VERTEX
  5
3EF
330
3C9
100
AcDbEntity
  8
LAY-1
  6
CONTINUOUS
 62
     3
100
AcDbVertex
100
AcDb2dVertex
 10
260.520764475454
 20
62.49127716522053
 30
0.0
  0
VERTEX
  5
3F0
330
3C9
100
AcDbEntity
  8
LAY-1
  6
CONTINUOUS
 62
     3
100
AcDbVertex
100
AcDb2dVertex
 10
260.2999020335533
 20
62.66358788203605
 30
0.0
  0
VERTEX
  5
3F1
330
3C9
100
AcDbEntity
  8
LAY-1
  6
CONTINUOUS
 62
     3
100
AcDbVertex
100
AcDb2dVertex
 10
260.0742977452794
 20
62.83279912518167
 30
0.0
  0
VERTEX
  5
3F2
330
3C9
100
AcDbEntity
  8
LAY-1
  6
CONTINUOUS
 62
     3
100
AcDbVertex
100
AcDb2dVertex
 10
259.8440385853802
 20
62.99884566050209
 30
0.0
  0
VERTEX
  5
3F3
330
3C9
100
AcDbEntity
  8
LAY-1
  6
CONTINUOUS
 62
     3
100
AcDbVertex
100
AcDb2dVertex
 10
259.6092133231449
 20
63.16166347389709
 30
0.0
  0
VERTEX
  5
3F4
330
3C9
100
AcDbEntity
  8
LAY-1
  6
CONTINUOUS
 62
     3
100
AcDbVertex
100
AcDb2dVertex
 10
259.3699124881823
 20
63.32118979600023
 30
0.0
  0
VERTEX
  5
3F5
330
3C9
100
AcDbEntity
  8
LAY-1
  6
CONTINUOUS
 62
     3
100
AcDbVertex
100
AcDb2dVertex
 10
259.1262283355195
 20
63.47736312637764
 30
0.0
  0
VERTEX
  5
3F6
330
3C9
100
AcDbEntity
  8
LAY-1
  6
CONTINUOUS
 62
     3
100
AcDbVertex
100
AcDb2dVertex
 10
258.8782548100361
 20
63.63012325723753
 30
0.0
  0
VERTEX
  5
3F7
330
3C9
100
AcDbEntity
  8
LAY-1
  6
CONTINUOUS
 62
     3
100
AcDbVertex
100
AcDb2dVertex
 10
258.6260875102466
 20
63.77941129664155
 30
0.0
  0
VERTEX
  5
3F8
330
3C9
100
AcDbEntity
  8
LAY-1
  6
CONTINUOUS
 62
     3
100
AcDbVertex
100
AcDb2dVertex
 10
258.3698236514452
 20
63.92516969120867
 30
0.0
  0
VERTEX
  5
3F9
330
3C9
100
AcDbEntity
  8
LAY-1
  6
CONTINUOUS
 62
     3
100
AcDbVertex
100
AcDb2dVertex
 10
258.1095620282279
 20
64.06734224830316
 30
0.0
  0
VERTEX
  5
3FA
330
3C9
100
AcDbEntity
  8
LAY-1
  6
CONTINUOUS
 62
     3
100
AcDbVertex
100
AcDb2dVertex
 10
257.8454029764046
 20
64.20587415769789
 30
0.0
  0
VERTEX
  5
3FB
330
3C9
100
AcDbEntity
  8
LAY-1
  6
CONTINUOUS
 62
     3
100
AcDbVertex
100
AcDb2dVertex
 10
257.5774483343181
 20
64.34071201270469
 30
0.0
  0
VERTEX
  5
3FC
330
3C9
100
AcDbEntity
  8
LAY-1
  6
CONTINUOUS
 62
     3
100
AcDbVertex
100
AcDb2dVertex
 10
257.3058014035839
 20
64.47180383076369
 30
0.0
  0
VERTEX
  5
3FD
330
3C9
100
AcDbEntity
  8
LAY-1
  6
CONTINUOUS
 62
     3
100
AcDbVertex
100
AcDb2dVertex
 10
257.0305669092648
 20
64.59909907348361
 30
0.0
  0
VERTEX
  5
3FE
330
3C9
100
AcDbEntity
  8
LAY-1
  6
CONTINUOUS
 62
     3
100
AcDbVertex
100
AcDb2dVertex
 10
256.7518509594978
 20
64.72254866612523
 30
0.0
  0
VERTEX
  5
3FF
330
3C9
100
AcDbEntity
  8
LAY-1
  6
CONTINUOUS
 62
     3
100
AcDbVertex
100
AcDb2dVertex
 10
256.4697610045869
 20
64.84210501652056
 30
0.0
  0
VERTEX
  5
400
330
3C9
100
AcDbEntity
  8
LAY-1
  6
CONTINUOUS
 62
     3
100
AcDbVertex
100
AcDb2dVertex
 10
256.1844057955797
 20
64.95772203342068
 30
0.0
  0
VERTEX
  5
401
330
3C9
100
AcDbEntity
  8
LAY-1
  6
CONTINUOUS
 62
     3
100
AcDbVertex
100
AcDb2dVertex
 10
255.8958953423412
 20
65.06935514426473
 30
0.0
  0
VERTEX
  5
402
330
3C9
100
AcDbEntity
  8
LAY-1
  6
CONTINUOUS
 62
     3
100
AcDbVertex
100
AcDb2dVertex
 10
255.6043408711432
 20
65.1769613123634
 30
0.0
  0
VERTEX
  5
403
330
3C9
100
AcDbEntity
  8
LAY-1
  6
CONTINUOUS
 62
     3
100
AcDbVertex
100
AcDb2dVertex
 10
255.3098547817842
 20
65.28049905349057
 30
0.0
  0
VERTEX
  5
404
330
3C9
100
AcDbEntity
  8
LAY-1
  6
CONTINUOUS
 62
     3
100
AcDbVertex
100
AcDb2dVertex
 10
255.0125506042577
 20
65.37992845187605
 30
0.0
  0
VERTEX
  5
405
330
3C9
100
AcDbEntity
  8
LAY-1
  6
CONTINUOUS
 62
     3
100
AcDbVertex
100
AcDb2dVertex
 10
254.7125429549835
 20
65.47521117559404
 30
0.0
  0
VERTEX
  5
406
330
3C9
100
AcDbEntity
  8
LAY-1
  6
CONTINUOUS
 62
     3
100
AcDbVertex
100
AcDb2dVertex
 10
254.4099474926211
 20
65.56631049134081
 30
0.0
  0
VERTEX
  5
407
330
3C9
100
AcDbEntity
  8
LAY-1
  6
CONTINUOUS
 62
     3
100
AcDbVertex
100
AcDb2dVertex
 10
254.1048808734816
 20
65.65319127859595
 30
0.0
  0
VERTEX
  5
408
330
3C9
100
AcDbEntity
  8
LAY-1
  6
CONTINUOUS
 62
     3
100
AcDbVertex
100
AcDb2dVertex
 10
253.7974607065539
 20
65.73582004316211
 30
0.0
  0
VERTEX
  5
409
330
3C9
100
AcDbEntity
  8
LAY-1
  6
CONTINUOUS
 62
     3
100
AcDbVertex
100
AcDb2dVertex
 10
253.4878055081643
 20
65.81416493007765
 30
0.0
  0
VERTEX
  5
40A
330
3C9
100
AcDbEntity
  8
LAY-1
  6
CONTINUOUS
 62
     3
100
AcDbVertex
100
AcDb2dVertex
 10
253.1760346562863
 20
65.88819573589731
 30
0.0
  0
VERTEX
  5
40B
330
3C9
100
AcDbEntity
  8
LAY-1
  6
CONTINUOUS
 62
     3
100
AcDbVertex
100
AcDb2dVertex
 10
252.8622683445183
 20
65.95788392033619
 30
0.0
  0
VERTEX
  5
40C
330
3C9
100
AcDbEntity
  8
LAY-1
  6
CONTINUOUS
 62
     3
100
AcDbVertex
100
AcDb2dVertex
 10
252.5466275357461
 20
66.02320261727263
 30
0.0
  0
VERTEX
  5
40D
330
3C9
100
AcDbEntity
  8
LAY-1
  6
CONTINUOUS
 62
     3
100
AcDbVertex
100
AcDb2dVertex
 10
252.22923391551
 20
66.08412664510557
 30
0.0
  0
VERTEX
  5
40E
330
3C9
100
AcDbEntity
  8
LAY-1
  6
CONTINUOUS
 62
     3
100
AcDbVertex
100
AcDb2dVertex
 10
251.9102098450926
 20
66.14063251646252
 30
0.0
  0
VERTEX
  5
40F
330
3C9
100
AcDbEntity
  8
LAY-1
  6
CONTINUOUS
 62
     3
100
AcDbVertex
100
AcDb2dVertex
 10
251.5896783143458
 20
66.19269844725444
 30
0.0
  0
VERTEX
  5
410
330
3C9
100
AcDbEntity
  8
LAY-1
  6
CONTINUOUS
 62
     3
100
AcDbVertex
100
AcDb2dVertex
 10
251.2677628942764
 20
66.24030436507388
 30
0.0
  0
VERTEX
  5
411
330
3C9
100
AcDbEntity
  8
LAY-1
  6
CONTINUOUS
 62
     3
100
AcDbVertex
100
AcDb2dVertex
 10
250.9445876894067
 20
66.28343191693331
 30
0.0
  0
VERTEX
  5
412
330
3C9
100
AcDbEntity
  8
LAY-1
  6
CONTINUOUS
 62
     3
100
AcDbVertex
100
AcDb2dVertex
 10
250.6202772899302
 20
66.3220644763405
 30
0.0
  0
VERTEX
  5
413
330
3C9
100
AcDbEntity
  8
LAY-1
  6
CONTINUOUS
 62
     3
100
AcDbVertex
100
AcDb2dVertex
 10
250.2949567236793
 20
66.35618714970843
 30
0.0
  0
VERTEX
  5
414
330
3C9
100
AcDbEntity
  8
LAY-1
  6
CONTINUOUS
 62
     3
100
AcDbVertex
100
AcDb2dVertex
 10
249.9687514079253
 20
66.38578678209693
 30
0.0
  0
VERTEX
  5
415
330
3C9
100
AcDbEntity
  8
LAY-1
  6
CONTINUOUS
 62
     3
100
AcDbVertex
100
AcDb2dVertex
 10
249.6417871010266
 20
66.41085196228428
 30
0.0
  0
VERTEX
  5
416
330
3C9
100
AcDbEntity
  8
LAY-1
  6
CONTINUOUS
 62
     3
100
AcDbVertex
100
AcDb2dVertex
 10
249.3141898539479
 20
66.43137302716636
 30
0.0
  0
VERTEX
  5
417
330
3C9
100
AcDbEntity
  8
LAY-1
  6
CONTINUOUS
 62
     3
100
AcDbVertex
100
AcDb2dVertex
 10
248.9860859616639
 20
66.44734206548205
 30
0.0
  0
VERTEX
  5
418
330
3C9
100
AcDbEntity
  8
LAY-1
  6
CONTINUOUS
 62
     3
100
AcDbVertex
100
AcDb2dVertex
 10
248.657601914471
 20
66.45875292086305
 30
0.0
  0
VERTEX
  5
419
330
3C9
100
AcDbEntity
  8
LAY-1
  6
CONTINUOUS
 62
     3
100
AcDbVertex
100
AcDb2dVertex
 10
248.3288643492222
 20
66.46560119420744
 30
0.0
  0
VERTEX
  5
41A
330
3C9
100
AcDbEntity
  8
LAY-1
  6
CONTINUOUS
 62
     3
100
AcDbVertex
100
AcDb2dVertex
 10
248.0000000005067
 20
66.46788424537547
 30
0.0
  0
VERTEX
  5
41B
330
3C9
100
AcDbEntity
  8
LAY-1
  6
CONTINUOUS
 62
     3
100
AcDbVertex
100
AcDb2dVertex
 10
247.6711356517912
 20
66.46560119420744
 30
0.0
  0
VERTEX
  5
41C
330
3C9
100
AcDbEntity
  8
LAY-1
  6
CONTINUOUS
 62
     3
100
AcDbVertex
100
AcDb2dVertex
 10
247.3423980865424
 20
66.45875292086305
 30
0.0
  0
VERTEX
  5
41D
330
3C9
100
AcDbEntity
  8
LAY-1
  6
CONTINUOUS
 62
     3
100
AcDbVertex
100
AcDb2dVertex
 10
247.0139140393494
 20
66.44734206548202
 30
0.0
  0
VERTEX
  5
41E
330
3C9
100
AcDbEntity
  8
LAY-1
  6
CONTINUOUS
 62
     3
100
AcDbVertex
100
AcDb2dVertex
 10
246.6858101470655
 20
66.43137302716636
 30
0.0
  0
VERTEX
  5
41F
330
3C9
100
AcDbEntity
  8
LAY-1
  6
CONTINUOUS
 62
     3
100
AcDbVertex
100
AcDb2dVertex
 10
246.3582128999868
 20
66.41085196228426
 30
0.0
  0
VERTEX
  5
420
330
3C9
100
AcDbEntity
  8
LAY-1
  6
CONTINUOUS
 62
     3
100
AcDbVertex
100
AcDb2dVertex
 10
246.0312485930882
 20
66.38578678209693
 30
0.0
  0
VERTEX
  5
421
330
3C9
100
AcDbEntity
  8
LAY-1
  6
CONTINUOUS
 62
     3
100
AcDbVertex
100
AcDb2dVertex
 10
245.7050432773341
 20
66.3561871497084
 30
0.0
  0
VERTEX
  5
422
330
3C9
100
AcDbEntity
  8
LAY-1
  6
CONTINUOUS
 62
     3
100
AcDbVertex
100
AcDb2dVertex
 10
245.3797227110832
 20
66.32206447634047
 30
0.0
  0
VERTEX
  5
423
330
3C9
100
AcDbEntity
  8
LAY-1
  6
CONTINUOUS
 62
     3
100
AcDbVertex
100
AcDb2dVertex
 10
245.0554123116067
 20
66.28343191693328
 30
0.0
  0
VERTEX
  5
424
330
3C9
100
AcDbEntity
  8
LAY-1
  6
CONTINUOUS
 62
     3
100
AcDbVertex
100
AcDb2dVertex
 10
244.732237106737
 20
66.24030436507385
 30
0.0
  0
VERTEX
  5
425
330
3C9
100
AcDbEntity
  8
LAY-1
  6
CONTINUOUS
 62
     3
100
AcDbVertex
100
AcDb2dVertex
 10
244.4103216866677
 20
66.19269844725441
 30
0.0
  0
VERTEX
  5
426
330
3C9
100
AcDbEntity
  8
LAY-1
  6
CONTINUOUS
 62
     3
100
AcDbVertex
100
AcDb2dVertex
 10
244.0897901559208
 20
66.14063251646249
 30
0.0
  0
VERTEX
  5
427
330
3C9
100
AcDbEntity
  8
LAY-1
  6
CONTINUOUS
 62
     3
100
AcDbVertex
100
AcDb2dVertex
 10
243.7707660855034
 20
66.08412664510557
 30
0.0
  0
VERTEX
  5
428
330
3C9
100
AcDbEntity
  8
LAY-1
  6
CONTINUOUS
 62
     3
100
AcDbVertex
100
AcDb2dVertex
 10
243.4533724652674
 20
66.02320261727263
 30
0.0
  0
VERTEX
  5
429
330
3C9
100
AcDbEntity
  8
LAY-1
  6
CONTINUOUS
 62
     3
100
AcDbVertex
100
AcDb2dVertex
 10
243.1377316564951
 20
65.95788392033619
 30
0.0
  0
VERTEX
  5
42A
330
3C9
100
AcDbEntity
  8
LAY-1
  6
CONTINUOUS
 62
     3
100
AcDbVertex
100
AcDb2dVertex
 10
242.823965344727
 20
65.88819573589728
 30
0.0
  0
VERTEX
  5
42B
330
3C9
100
AcDbEntity
  8
LAY-1
  6
CONTINUOUS
 62
     3
100
AcDbVertex
100
AcDb2dVertex
 10
242.5121944928491
 20
65.81416493007762
 30
0.0
  0
VERTEX
  5
42C
330
3C9
100
AcDbEntity
  8
LAY-1
  6
CONTINUOUS
 62
     3
100
AcDbVertex
100
AcDb2dVertex
 10
242.2025392944595
 20
65.73582004316208
 30
0.0
  0
VERTEX
  5
42D
330
3C9
100
AcDbEntity
  8
LAY-1
  6
CONTINUOUS
 62
     3
100
AcDbVertex
100
AcDb2dVertex
 10
241.8951191275318
 20
65.65319127859593
 30
0.0
  0
VERTEX
  5
42E
330
3C9
100
AcDbEntity
  8
LAY-1
  6
CONTINUOUS
 62
     3
100
AcDbVertex
100
AcDb2dVertex
 10
241.5900525083923
 20
65.56631049134077
 30
0.0
  0
VERTEX
  5
42F
330
3C9
100
AcDbEntity
  8
LAY-1
  6
CONTINUOUS
 62
     3
100
AcDbVertex
100
AcDb2dVertex
 10
241.28745704603
 20
65.47521117559401
 30
0.0
  0
VERTEX
  5
430
330
3C9
100
AcDbEntity
  8
LAY-1
  6
CONTINUOUS
 62
     3
100
AcDbVertex
100
AcDb2dVertex
 10
240.9874493967557
 20
65.37992845187603
 30
0.0
  0
VERTEX
  5
431
330
3C9
100
AcDbEntity
  8
LAY-1
  6
CONTINUOUS
 62
     3
100
AcDbVertex
100
AcDb2dVertex
 10
240.6901452192292
 20
65.28049905349053
 30
0.0
  0
VERTEX
  5
432
330
3C9
100
AcDbEntity
  8
LAY-1
  6
CONTINUOUS
 62
     3
100
AcDbVertex
100
AcDb2dVertex
 10
240.3956591298703
 20
65.17696131236337
 30
0.0
  0
VERTEX
  5
433
330
3C9
100
AcDbEntity
  8
LAY-1
  6
CONTINUOUS
 62
     3
100
AcDbVertex
100
AcDb2dVertex
 10
240.1041046586723
 20
65.06935514426468
 30
0.0
  0
VERTEX
  5
434
330
3C9
100
AcDbEntity
  8
LAY-1
  6
CONTINUOUS
 62
     3
100
AcDbVertex
100
AcDb2dVertex
 10
239.8155942054337
 20
64.95772203342064
 30
0.0
  0
VERTEX
  5
435
330
3C9
100
AcDbEntity
  8
LAY-1
  6
CONTINUOUS
 62
     3
100
AcDbVertex
100
AcDb2dVertex
 10
239.5302389964265
 20
64.84210501652053
 30
0.0
  0
VERTEX
  5
436
330
3C9
100
AcDbEntity
  8
LAY-1
  6
CONTINUOUS
 62
     3
100
AcDbVertex
100
AcDb2dVertex
 10
239.2481490415157
 20
64.72254866612519
 30
0.0
  0
VERTEX
  5
437
330
3C9
100
AcDbEntity
  8
LAY-1
  6
CONTINUOUS
 62
     3
100
AcDbVertex
100
AcDb2dVertex
 10
238.9694330917485
 20
64.59909907348359
 30
0.0
  0
VERTEX
  5
438
330
3C9
100
AcDbEntity
  8
LAY-1
  6
CONTINUOUS
 62
     3
100
AcDbVertex
100
AcDb2dVertex
 10
238.6941985974295
 20
64.47180383076366
 30
0.0
  0
VERTEX
  5
439
330
3C9
100
AcDbEntity
  8
LAY-1
  6
CONTINUOUS
 62
     3
100
AcDbVertex
100
AcDb2dVertex
 10
238.4225516666953
 20
64.34071201270464
 30
0.0
  0
VERTEX
  5
43A
330
3C9
100
AcDbEntity
  8
LAY-1
  6
CONTINUOUS
 62
     3
100
AcDbVertex
100
AcDb2dVertex
 10
238.154597024609
 20
64.20587415769783
 30
0.0
  0
VERTEX
  5
43B
330
3C9
100
AcDbEntity
  8
LAY-1
  6
CONTINUOUS
 62
     3
100
AcDbVertex
100
AcDb2dVertex
 10
237.8904379727855
 20
64.0673422483031
 30
0.0
  0
VERTEX
  5
43C
330
3C9
100
AcDbEntity
  8
LAY-1
  6
CONTINUOUS
 62
     3
100
AcDbVertex
100
AcDb2dVertex
 10
237.6301763495681
 20
63.92516969120863
 30
0.0
  0
VERTEX
  5
43D
330
3C9
100
AcDbEntity
  8
LAY-1
  6
CONTINUOUS
 62
     3
100
AcDbVertex
100
AcDb2dVertex
 10
237.3739124907669
 20
63.77941129664151
 30
0.0
  0
VERTEX
  5
43E
330
3C9
100
AcDbEntity
  8
LAY-1
  6
CONTINUOUS
 62
     3
100
AcDbVertex
100
AcDb2dVertex
 10
237.1217451909773
 20
63.63012325723747
 30
0.0
  0
VERTEX
  5
43F
330
3C9
100
AcDbEntity
  8
LAY-1
  6
CONTINUOUS
 62
     3
100
AcDbVertex
100
AcDb2dVertex
 10
236.873771665494
 20
63.47736312637758
 30
0.0
  0
VERTEX
  5
440
330
3C9
100
AcDbEntity
  8
LAY-1
  6
CONTINUOUS
 62
     3
100
AcDbVertex
100
AcDb2dVertex
 10
236.6300875128312
 20
63.32118979600018
 30
0.0
  0
VERTEX
  5
441
330
3C9
100
AcDbEntity
  8
LAY-1
  6
CONTINUOUS
 62
     3
100
AcDbVertex
100
AcDb2dVertex
 10
236.3907866778685
 20
63.16166347389703
 30
0.0
  0
VERTEX
  5
442
330
3C9
100
AcDbEntity
  8
LAY-1
  6
CONTINUOUS
 62
     3
100
AcDbVertex
100
AcDb2dVertex
 10
236.1559614156332
 20
62.99884566050203
 30
0.0
  0
VERTEX
  5
443
330
3C9
100
AcDbEntity
  8
LAY-1
  6
CONTINUOUS
 62
     3
100
AcDbVertex
100
AcDb2dVertex
 10
235.925702255734
 20
62.8327991251816
 30
0.0
  0
VERTEX
  5
444
330
3C9
100
AcDbEntity
  8
LAY-1
  6
CONTINUOUS
 62
     3
100
AcDbVertex
100
AcDb2dVertex
 10
235.7000979674602
 20
62.663587882036
 30
0.0
  0
VERTEX
  5
445
330
3C9
100
AcDbEntity
  8
LAY-1
  6
CONTINUOUS
 62
     3
100
AcDbVertex
100
AcDb2dVertex
 10
235.4792355255594
 20
62.49127716522047
 30
0.0
  0
VERTEX
  5
446
330
3C9
100
AcDbEntity
  8
LAY-1
  6
CONTINUOUS
 62
     3
100
AcDbVertex
100
AcDb2dVertex
 10
235.2632000767074
 20
62.31593340379648
 30
0.0
  0
VERTEX
  5
447
330
3C9
100
AcDbEntity
  8
LAY-1
  6
CONTINUOUS
 62
     3
100
AcDbVertex
100
AcDb2dVertex
 10
235.0520749066821
 20
62.13762419612188
 30
0.0
  0
VERTEX
  5
448
330
3C9
100
AcDbEntity
  8
LAY-1
  6
CONTINUOUS
 62
     3
100
AcDbVertex
100
AcDb2dVertex
 10
234.8459414082554
 20
61.95641828379046
 30
0.0
  0
VERTEX
  5
449
330
3C9
100
AcDbEntity
  8
LAY-1
  6
CONTINUOUS
 62
     3
100
AcDbVertex
100
AcDb2dVertex
 10
234.644879049815
 20
61.77238552513087
 30
0.0
  0
VERTEX
  5
44A
330
3C9
100
AcDbEntity
  8
LAY-1
  6
CONTINUOUS
 62
     3
100
AcDbVertex
100
AcDb2dVertex
 10
234.4489653447275
 20
61.58559686827481
 30
0.0
  0
VERTEX
  5
44B
330
3C9
100
AcDbEntity
  8
LAY-1
  6
CONTINUOUS
 62
     3
100
AcDbVertex
100
AcDb2dVertex
 10
234.2582758214555
 20
61.39612432380514
 30
0.0
  0
VERTEX
  5
44C
330
3C9
100
AcDbEntity
  8
LAY-1
  6
CONTINUOUS
 62
     3
100
AcDbVertex
100
AcDb2dVertex
 10
234.0728839944402
 20
61.20404093699455
 30
0.0
  0
VERTEX
  5
44D
330
3C9
100
AcDbEntity
  8
LAY-1
  6
CONTINUOUS
 62
     3
100
AcDbVertex
100
AcDb2dVertex
 10
233.89286133576
 20
61.00942075964512
 30
0.0
  0
VERTEX
  5
44E
330
3C9
100
AcDbEntity
  8
LAY-1
  6
CONTINUOUS
 62
     3
100
AcDbVertex
100
AcDb2dVertex
 10
233.7182772475767
 20
60.81233882154
 30
0.0
  0
VERTEX
  5
44F
330
3C9
100
AcDbEntity
  8
LAY-1
  6
CONTINUOUS
 62
     3
100
AcDbVertex
100
AcDb2dVertex
 10
233.5491990353798
 20
60.61287110151795
 30
0.0
  0
VERTEX
  5
450
330
3C9
100
AcDbEntity
  8
LAY-1
  6
CONTINUOUS
 62
     3
100
AcDbVertex
100
AcDb2dVertex
 10
233.3856918820384
 20
60.41109449818208
 30
0.0
  0
VERTEX
  5
451
330
3C9
100
AcDbEntity
  8
LAY-1
  6
CONTINUOUS
 62
     3
100
AcDbVertex
100
AcDb2dVertex
 10
233.2278188226728
 20
60.20708680025395
 30
0.0
  0
VERTEX
  5
452
330
3C9
100
AcDbEntity
  8
LAY-1
  6
CONTINUOUS
 62
     3
100
AcDbVertex
100
AcDb2dVertex
 10
233.0756407203525
 20
60.0009266565846
 30
0.0
  0
VERTEX
  5
453
330
3C9
100
AcDbEntity
  8
LAY-1
  6
CONTINUOUS
 62
     3
100
AcDbVertex
100
AcDb2dVertex
 10
232.9292162426329
 20
59.79269354583384
 30
0.0
  0
VERTEX
  5
454
330
3C9
100
AcDbEntity
  8
LAY-1
  6
CONTINUOUS
 62
     3
100
AcDbVertex
100
AcDb2dVertex
 10
232.7886018389376
 20
59.58246774582979
 30
0.0
  0
VERTEX
  5
455
330
3C9
100
AcDbEntity
  8
LAY-1
  6
CONTINUOUS
 62
     3
100
AcDbVertex
100
AcDb2dVertex
 10
232.6538517187956
 20
59.37033030262014
 30
0.0
  0
VERTEX
  5
456
330
3C9
100
AcDbEntity
  8
LAY-1
  6
CONTINUOUS
 62
     3
100
AcDbVertex
100
AcDb2dVertex
 10
232.5250178309435
 20
59.15636299922747
 30
0.0
  0
VERTEX
  5
457
330
3C9
100
AcDbEntity
  8
LAY-1
  6
CONTINUOUS
 62
     3
100
AcDbVertex
100
AcDb2dVertex
 10
232.4021498432976
 20
58.94064832412032
 30
0.0
  0
VERTEX
  5
458
330
3C9
100
AcDbEntity
  8
LAY-1
  6
CONTINUOUS
 62
     3
100
AcDbVertex
100
AcDb2dVertex
 10
232.2852951238059
 20
58.72326943941227
 30
0.0
  0
VERTEX
  5
459
330
3C9
100
AcDbEntity
  8
LAY-1
  6
CONTINUOUS
 62
     3
100
AcDbVertex
100
AcDb2dVertex
 10
232.1744987221873
 20
58.50431014880134
 30
0.0
  0
VERTEX
  5
45A
330
3C9
100
AcDbEntity
  8
LAY-1
  6
CONTINUOUS
 62
     3
100
AcDbVertex
100
AcDb2dVertex
 10
232.0698033525636
 20
58.28385486526215
 30
0.0
  0
VERTEX
  5
45B
330
3C9
100
AcDbEntity
  8
LAY-1
  6
CONTINUOUS
 62
     3
100
AcDbVertex
100
AcDb2dVertex
 10
231.9712493769929
 20
58.06198857850305
 30
0.0
  0
VERTEX
  5
45C
330
3C9
100
AcDbEntity
  8
LAY-1
  6
CONTINUOUS
 62
     3
100
AcDbVertex
100
AcDb2dVertex
 10
231.8788747899088
 20
57.83879682220104
 30
0.0
  0
VERTEX
  5
45D
330
3C9
100
AcDbEntity
  8
LAY-1
  6
CONTINUOUS
 62
     3
100
AcDbVertex
100
AcDb2dVertex
 10
231.792715203473
 20
57.61436564102679
 30
0.0
  0
VERTEX
  5
45E
330
3C9
100
AcDbEntity
  8
LAY-1
  6
CONTINUOUS
 62
     3
100
AcDbVertex
100
AcDb2dVertex
 10
231.7128038338462
 20
57.3887815574729
 30
0.0
  0
VERTEX
  5
45F
330
3C9
100
AcDbEntity
  8
LAY-1
  6
CONTINUOUS
 62
     3
100
AcDbVertex
100
AcDb2dVertex
 10
231.6391714883827
 20
57.16213153849775
 30
0.0
  0
VERTEX
  5
460
330
3C9
100
AcDbEntity
  8
LAY-1
  6
CONTINUOUS
 62
     3
100
AcDbVertex
100
AcDb2dVertex
 10
231.5718465537531
 20
56.93450296199817
 30
0.0
  0
VERTEX
  5
461
330
3C9
100
AcDbEntity
  8
LAY-1
  6
CONTINUOUS
 62
     3
100
AcDbVertex
100
AcDb2dVertex
 10
231.5108549850015
 20
56.70598358312348
 30
0.0
  0
VERTEX
  5
462
330
3C9
100
AcDbEntity
  8
LAY-1
  6
CONTINUOUS
 62
     3
100
AcDbVertex
100
AcDb2dVertex
 10
231.4562202955386
 20
56.47666150044432
 30
0.0
  0
VERTEX
  5
463
330
3C9
100
AcDbEntity
  8
LAY-1
  6
CONTINUOUS
 62
     3
100
AcDbVertex
100
AcDb2dVertex
 10
231.4079635480772
 20
56.24662512198888
 30
0.0
  0
VERTEX
  5
464
330
3C9
100
AcDbEntity
  8
LAY-1
  6
CONTINUOUS
 62
     3
100
AcDbVertex
100
AcDb2dVertex
 10
231.366103346512
 20
56.01596313116005
 30
0.0
  0
VERTEX
  5
465
330
3C9
100
AcDbEntity
  8
LAY-1
  6
CONTINUOUS
 62
     3
100
AcDbVertex
100
AcDb2dVertex
 10
231.3306558287477
 20
55.7847644525461
 30
0.0
  0
VERTEX
  5
466
330
3C9
100
AcDbEntity
  8
LAY-1
  6
CONTINUOUS
 62
     3
100
AcDbVertex
100
AcDb2dVertex
 10
231.301634660477
 20
55.5531182176387
 30
0.0
  0
VERTEX
  5
467
330
3C9
100
AcDbEntity
  8
LAY-1
  6
CONTINUOUS
 62
     3
100
AcDbVertex
100
AcDb2dVertex
 10
231.2790510299129
 20
55.32111373047103
 30
0.0
  0
VERTEX
  5
468
330
3C9
100
AcDbEntity
  8
LAY-1
  6
CONTINUOUS
 62
     3
100
AcDbVertex
100
AcDb2dVertex
 10
231.2629136434747
 20
55.08884043318928
 30
0.0
  0
VERTEX
  5
469
330
3C9
100
AcDbEntity
  8
LAY-1
  6
CONTINUOUS
 62
     3
100
AcDbVertex
100
AcDb2dVertex
 10
231.2532287224322
 20
54.85638787157107
 30
0.0
  0
VERTEX
  5
46A
330
3C9
100
AcDbEntity
  8
LAY-1
  6
CONTINUOUS
 62
     3
100
AcDbVertex
100
AcDb2dVertex
 10
231.25
 20
54.62384562400364
 30
0.0
  0
SEQEND
  5
46B
330
3C9
100
AcDbEntity
  8
LAY-1
  6
CONTINUOUS
 62
     3
  0
LINE
  5
46C
330
1F
100
AcDbEntity
  8
LAY-1
  6
CONTINUOUS
 62
     3
100
AcDbLine
 10
264.75000000051
 20
54.623845660504
 30
0.0
 11
264.75000000051
 21
51.44186514516602
 31
0.0
  0
LINE
  5
46D
330
1F
100
AcDbEntity
  8
LAY-1
  6
CONTINUOUS
 62
     3
100
AcDbLine
 10
231.25
 20
54.623845624004
 30
0.0
 11
231.25
 21
51.44186514516602
 31
0.0
  0
ELLIPSE
  5
46E
330
1F
100
AcDbEntity
  8
LAY-1
  6
CONTINUOUS
 62
     3
100
AcDbEllipse
 10
248.0
 20
54.623845660503
 30
0.0
 11
-18.5
 21
2.265596578422603E-15
 31
0.0
210
0.0
220
0.0
230
1.0
 40
0.7071067811865406
 41
2.626958606738242
 42
6.797819354029659
  0
LINE
  5
46F
330
1F
100
AcDbEntity
  8
LAY-1
  6
CONTINUOUS
 62
     3
100
AcDbLine
 10
266.5
 20
63.109127034744
 30
0.0
 11
266.5
 21
54.623845660503
 31
0.0
  0
LINE
  5
470
330
1F
100
AcDbEntity
  8
LAY-1
  6
CONTINUOUS
 62
     3
100
AcDbLine
 10
229.5
 20
63.109127034744
 30
0.0
 11
229.5
 21
54.623845660503
 31
0.0
  0
ELLIPSE
  5
471
330
1F
100
AcDbEntity
  8
LAY-1
  6
CONTINUOUS
 62
     3
100
AcDbEllipse
 10
248.0
 20
63.109127034744
 30
0.0
 11
-18.5
 21
2.265596578422603E-15
 31
0.0
210
0.0
220
0.0
230
1.0
 40
0.7071067811865406
 41
3.141592653589793
 42
6.283185307179586
  0
LINE
  5
472
330
1F
100
AcDbEntity
  8
LAY-1
  6
CONTINUOUS
 62
     3
100
AcDbLine
 10
231.0
 20
111.8149545762277
 30
0.0
 11
231.0
 21
92.18504542377158
 31
0.0
  0
LINE
  5
473
330
1F
100
AcDbEntity
  8
LAY-1
  6
CONTINUOUS
 62
     3
100
AcDbLine
 10
247.9999999999943
 20
82.37009084755104
 30
0.0
 11
231.0
 21
92.18504542377158
 31
0.0
  0
LINE
  5
474
330
1F
100
AcDbEntity
  8
LAY-1
  6
CONTINUOUS
 62
     3
100
AcDbLine
 10
247.9999999999986
 20
121.6299091524508
 30
0.0
 11
231.0
 21
111.8149545762277
 31
0.0
  0
CIRCLE
  5
475
330
1F
100
AcDbEntity
  8
LAY-1
  6
CONTINUOUS
 62
     3
100
AcDbCircle
 10
247.9999999999999
 20
102.0
 30
0.0
 40
12.0585
  0
CIRCLE
  5
476
330
1F
100
AcDbEntity
  8
LAY-1
  6
CONTINUOUS
 62
     1
100
AcDbCircle
 10
247.9999999999999
 20
102.0
 30
0.0
 40
13.2205
  0
CIRCLE
  5
477
330
1F
100
AcDbEntity
  8
LAY-1
  6
CONTINUOUS
 62
     3
100
AcDbCircle
 10
247.9999999999999
 20
102.000000000001
 30
0.0
 40
17.0
  0
LINE
  5
478
330
1F
100
AcDbEntity
  8
LAY-1
  6
CONTINUOUS
 62
     3
100
AcDbLine
 10
248.0000000000014
 20
121.6299091524508
 30
0.0
 11
265.0
 21
111.8149545762277
 31
0.0
  0
LINE
  5
479
330
1F
100
AcDbEntity
  8
LAY-1
  6
CONTINUOUS
 62
     3
100
AcDbLine
 10
265.0
 20
111.8149545762277
 30
0.0
 11
265.0
 21
92.18504542377158
 31
0.0
  0
LINE
  5
47A
330
1F
100
AcDbEntity
  8
LAY-1
  6
CONTINUOUS
 62
     3
100
AcDbLine
 10
248.0000000000057
 20
82.37009084755104
 30
0.0
 11
265.0
 21
92.18504542377158
 31
0.0
  0
ARC
  5
47B
330
1F
100
AcDbEntity
  8
LAY-1
  6
CONTINUOUS
 62
     3
100
AcDbCircle
 10
279.8892845208872
 20
80.43600393040624
 30
0.0
 40
51.93728459426202
100
AcDbArc
 50
160.2733813761682
 51
196.0608007252108
  0
ARC
  5
47C
330
1F
100
AcDbEntity
  8
LAY-1
  6
CONTINUOUS
 62
     3
100
AcDbCircle
 10
216.1107154791128
 20
80.43600393040626
 30
0.0
 40
51.93728459426202
100
AcDbArc
 50
343.9391992747892
 51
19.72661862383182
  0
LINE
  5
47D
330
1F
100
AcDbEntity
  8
LAY-1
  6
EXLTYPE3
 62
     1
100
AcDbLine
 10
248.0
 20
125.0
 30
0.0
 11
248.0
 21
33.0
 31
0.0
  0
TEXT
  5
47F
330
1F
100
AcDbEntity
  8
LAY-1
  6
CONTINUOUS
 62
     3
100
AcDbText
 10
226.0
 20
218.5625
 30
0.0
 40
2.733242134062928
  1
ＳＴＡＩＮＬＥＳＳ　ＳＴＥＥＬ
  7
EXCADTTF1
 72
     5
 11
286.0
 21
218.5625
 31
0.0
100
AcDbText
  0
TEXT
  5
480
330
1F
100
AcDbEntity
  8
LAY-1
  6
CONTINUOUS
 62
     3
100
AcDbText
 10
226.0
 20
210.5625
 30
0.0
 40
2.733242134062928
  1
Ｙ　ＴＹＰＥ　ＳＴＲＡＩＮＥＲ
  7
EXCADTTF1
 72
     5
 11
286.0
 21
210.5625
 31
0.0
100
AcDbText
  0
TEXT
  5
481
330
1F
100
AcDbEntity
  8
LAY-1
  6
CONTINUOUS
 62
     3
100
AcDbText
 10
226.0
 20
202.5625
 30
0.0
 40
2.733242134062928
  1
２０ＳＹＬ－１３Ａ
  7
EXCADTTF1
 72
     5
 11
262.0
 21
202.5625
 31
0.0
100
AcDbText
  0
TEXT
  5
482
330
1F
100
AcDbEntity
  8
LAY-1
  6
CONTINUOUS
 62
     3
100
AcDbText
 10
226.0
 20
194.5625
 30
0.0
 40
2.733242134062928
  1
２０Ｋ－3/4
  7
EXCADTTF1
 72
     5
 11
248.0
 21
194.5625
 31
0.0
100
AcDbText
  0
ENDSEC
  0
SECTION
  2
OBJECTS
  0
DICTIONARY
  5
C
330
0
100
AcDbDictionary
  3
ACAD_GROUP
350
D
  3
ACAD_LAYOUT
350
1A
  3
ACAD_MATERIAL
350
43
  3
ACAD_MLEADERSTYLE
350
4A5
  3
ACAD_MLINESTYLE
350
17
  3
ACAD_PLOTSETTINGS
350
19
  3
ACAD_SCALELIST
350
47
  3
ACAD_VISUALSTYLE
350
2A
  3
ACDBHEADERROUNDTRIPXREC
350
483
  3
ACDBVARIABLEDICTIONARY
350
4A3
  0
DICTIONARY
  5
D
102
{ACAD_REACTORS
330
C
102
}
330
C
100
AcDbDictionary
  0
DICTIONARY
  5
1A
102
{ACAD_REACTORS
330
C
102
}
330
C
100
AcDbDictionary
  0
DICTIONARY
  5
43
102
{ACAD_REACTORS
330
C
102
}
330
C
100
AcDbDictionary
  3
BYBLOCK
350
45
  3
BYLAYER
350
44
  3
GLOBAL
350
46
  0
DICTIONARY
  5
4A5
102
{ACAD_REACTORS
330
C
102
}
330
C
100
AcDbDictionary
  0
DICTIONARY
  5
17
102
{ACAD_REACTORS
330
C
102
}
330
C
100
AcDbDictionary
  3
STANDARD
350
18
  0
DICTIONARY
  5
19
102
{ACAD_REACTORS
330
C
102
}
330
C
100
AcDbDictionary
  0
DICTIONARY
  5
47
102
{ACAD_REACTORS
330
C
102
}
330
C
100
AcDbDictionary
  3
A0
350
48
  3
A1
350
49
  3
A2
350
4A
  3
A3
350
4B
  3
A4
350
4C
  3
A5
350
4D
  3
A6
350
4E
  3
A7
350
4F
  3
A8
350
50
  3
A9
350
51
  3
B0
350
52
  3
B1
350
53
  3
B2
350
54
  3
B3
350
55
  3
B4
350
56
  3
B5
350
57
  3
B6
350
58
  3
B7
350
59
  3
B8
350
5A
  3
B9
350
5B
  3
C0
350
5C
  3
C1
350
5D
  3
C2
350
5E
  3
C3
350
5F
  3
C4
350
60
  3
C5
350
61
  3
C6
350
62
  3
C7
350
63
  3
C8
350
64
  3
C9
350
65
  3
D0
350
66
  3
D1
350
67
  3
D2
350
68
  0
DICTIONARY
  5
2A
102
{ACAD_REACTORS
330
C
102
}
330
C
100
AcDbDictionary
  3
2DWIREFRAME
350
2F
  3
BASIC
350
32
  3
BRIGHTEN
350
36
  3
COLORCHANGE
350
3A
  3
CONCEPTUAL
350
34
  3
DIM
350
35
  3
EDGECOLOROFF
350
3D
  3
FACEPATTERN
350
39
  3
FLAT
350
2B
  3
FLATWITHEDGES
350
2C
  3
GOURAUD
350
2D
  3
GOURAUDWITHEDGES
350
2E
  3
HIDDEN
350
31
  3
JITTEROFF
350
3B
  3
LINEPATTERN
350
38
  3
OVERHANGOFF
350
3C
  3
REALISTIC
350
33
  3
SHADED
350
42
  3
SHADED_WITH_EDGES
350
41
  3
SHADES_OF_GRAY
350
3E
  3
SKETCHY
350
3F
  3
THICKEN
350
37
  3
WIREFRAME
350
30
  3
X-RAY
350
40
  0
DICTIONARY
  5
483
102
{ACAD_REACTORS
330
C
102
}
330
C
100
AcDbDictionary
  3
CEPSNTYPE
350
48C
  3
DIMSTYLEDATA
350
4A2
  3
FINGERPRINTGUID
350
48D
  3
HYPERLINKBASE
350
486
  3
INSUNITS
350
48B
  3
LAYOUTDICT
350
488
  3
LWETCUNION
350
48A
  3
PLOTSETDICT
350
489
  3
PSVPSCALE
350
48F
  3
PUCSBASE
350
492
  3
PUCSORGBACK
350
498
  3
PUCSORGBOTTOM
350
494
  3
PUCSORGFRONT
350
497
  3
PUCSORGLEFT
350
495
  3
PUCSORGRIGHT
350
496
  3
PUCSORGTOP
350
493
  3
PUCSORTHOREF
350
490
  3
PUCSORTHOVIEW
350
491
  3
STYLESHEET
350
487
  3
TSTACKALIGN
350
484
  3
TSTACKSIZE
350
485
  3
UCSBASE
350
49B
  3
UCSORGBACK
350
4A1
  3
UCSORGBOTTOM
350
49D
  3
UCSORGFRONT
350
4A0
  3
UCSORGLEFT
350
49E
  3
UCSORGRIGHT
350
49F
  3
UCSORGTOP
350
49C
  3
UCSORTHOREF
350
499
  3
UCSORTHOVIEW
350
49A
  3
VERSIONGUID
350
48E
  0
DICTIONARY
  5
4A3
102
{ACAD_REACTORS
330
C
102
}
330
C
100
AcDbDictionary
  3
CANNOSCALE
350
4AC
  3
DIMASSOC
350
4AA
  3
HIDETEXT
350
4AB
  3
MSLTSCALE
350
4AD
  3
PSOLHEIGHT
350
4A7
  3
PSOLWIDTH
350
4A6
  0
MATERIAL
  5
45
102
{ACAD_REACTORS
330
43
102
}
102
{ACAD_XDICTIONARY
360
4B0
102
}
330
43
100
AcDbMaterial
  1
BYBLOCK
  0
MATERIAL
  5
44
102
{ACAD_REACTORS
330
43
102
}
102
{ACAD_XDICTIONARY
360
4AE
102
}
330
43
100
AcDbMaterial
  1
BYLAYER
  0
MATERIAL
  5
46
102
{ACAD_REACTORS
330
43
102
}
102
{ACAD_XDICTIONARY
360
4B2
102
}
330
43
100
AcDbMaterial
  1
GLOBAL
  0
MLINESTYLE
  5
18
102
{ACAD_REACTORS
330
17
102
}
330
17
100
AcDbMlineStyle
  2
Standard
 70
     0
  3

 62
   256
 51
90.0
 52
90.0
 71
     2
 49
0.5
 62
   256
  6
BYLAYER
 49
-0.5
 62
   256
  6
BYLAYER
  0
ACAD_PROXY_OBJECT
  5
48
102
{ACAD_REACTORS
330
47
102
}
330
47
100
AcDbProxyObject
 90
      499
 91
      503
 93
       41
310
903313A31580
  0
ACAD_PROXY_OBJECT
  5
49
102
{ACAD_REACTORS
330
47
102
}
330
47
100
AcDbProxyObject
 90
      499
 91
      503
 93
      105
310
903313A324000000000000004000
  0
ACAD_PROXY_OBJECT
  5
4A
102
{ACAD_REACTORS
330
47
102
}
330
47
100
AcDbProxyObject
 90
      499
 91
      503
 93
      105
310
903313A344000000000000104000
  0
ACAD_PROXY_OBJECT
  5
4B
102
{ACAD_REACTORS
330
47
102
}
330
47
100
AcDbProxyObject
 90
      499
 91
      503
 93
      105
310
903313A354000000000000144000
  0
ACAD_PROXY_OBJECT
  5
4C
102
{ACAD_REACTORS
330
47
102
}
330
47
100
AcDbProxyObject
 90
      499
 91
      503
 93
      105
310
903313A384000000000000204000
  0
ACAD_PROXY_OBJECT
  5
4D
102
{ACAD_REACTORS
330
47
102
}
330
47
100
AcDbProxyObject
 90
      499
 91
      503
 93
      113
310
904313A31304000000000000244000
  0
ACAD_PROXY_OBJECT
  5
4E
102
{ACAD_REACTORS
330
47
102
}
330
47
100
AcDbProxyObject
 90
      499
 91
      503
 93
      113
310
904313A31364000000000000304000
  0
ACAD_PROXY_OBJECT
  5
4F
102
{ACAD_REACTORS
330
47
102
}
330
47
100
AcDbProxyObject
 90
      499
 91
      503
 93
      113
310
904313A32304000000000000344000
  0
ACAD_PROXY_OBJECT
  5
50
102
{ACAD_REACTORS
330
47
102
}
330
47
100
AcDbProxyObject
 90
      499
 91
      503
 93
      113
310
904313A333040000000000003E4000
  0
ACAD_PROXY_OBJECT
  5
51
102
{ACAD_REACTORS
330
47
102
}
330
47
100
AcDbProxyObject
 90
      499
 91
      503
 93
      113
310
904313A34304000000000000444000
  0
ACAD_PROXY_OBJECT
  5
52
102
{ACAD_REACTORS
330
47
102
}
330
47
100
AcDbProxyObject
 90
      499
 91
      503
 93
      113
310
904313A35304000000000000494000
  0
ACAD_PROXY_OBJECT
  5
53
102
{ACAD_REACTORS
330
47
102
}
330
47
100
AcDbProxyObject
 90
      499
 91
      503
 93
      121
310
905313A3130304000000000000594000
  0
ACAD_PROXY_OBJECT
  5
54
102
{ACAD_REACTORS
330
47
102
}
330
47
100
AcDbProxyObject
 90
      499
 91
      503
 93
      105
310
903323A310000000000000010100
  0
ACAD_PROXY_OBJECT
  5
55
102
{ACAD_REACTORS
330
47
102
}
330
47
100
AcDbProxyObject
 90
      499
 91
      503
 93
      105
310
903343A310000000000000410100
  0
ACAD_PROXY_OBJECT
  5
56
102
{ACAD_REACTORS
330
47
102
}
330
47
100
AcDbProxyObject
 90
      499
 91
      503
 93
      105
310
903383A310000000000000810100
  0
ACAD_PROXY_OBJECT
  5
57
102
{ACAD_REACTORS
330
47
102
}
330
47
100
AcDbProxyObject
 90
      499
 91
      503
 93
      113
310
90431303A310000000000000910100
  0
ACAD_PROXY_OBJECT
  5
58
102
{ACAD_REACTORS
330
47
102
}
330
47
100
AcDbProxyObject
 90
      499
 91
      503
 93
      121
310
9053130303A310000000000001650100
  0
ACAD_PROXY_OBJECT
  5
59
102
{ACAD_REACTORS
330
47
102
}
330
47
100
AcDbProxyObject
 90
      499
 91
      503
 93
      257
310
90E312F31323822203D2031272D3022000000000000200FC000000000000284000
  0
ACAD_PROXY_OBJECT
  5
5A
102
{ACAD_REACTORS
330
47
102
}
330
47
100
AcDbProxyObject
 90
      499
 91
      503
 93
      249
310
90D312F363422203D2031272D3022000000000000240FC000000000000284000
  0
ACAD_PROXY_OBJECT
  5
5B
102
{ACAD_REACTORS
330
47
102
}
330
47
100
AcDbProxyObject
 90
      499
 91
      503
 93
      249
310
90D312F333222203D2031272D3022000000000000280FC000000000000284000
  0
ACAD_PROXY_OBJECT
  5
5C
102
{ACAD_REACTORS
330
47
102
}
330
47
100
AcDbProxyObject
 90
      499
 91
      503
 93
      249
310
90D312F313622203D2031272D30220000000000002C0FC000000000000284000
  0
ACAD_PROXY_OBJECT
  5
5D
102
{ACAD_REACTORS
330
47
102
}
330
47
100
AcDbProxyObject
 90
      499
 91
      503
 93
      249
310
90D332F333222203D2031272D30220000000000002E0FC000000000000284000
  0
ACAD_PROXY_OBJECT
  5
5E
102
{ACAD_REACTORS
330
47
102
}
330
47
100
AcDbProxyObject
 90
      499
 91
      503
 93
      241
310
90C312F3822203D2031272D3022000000000000300FC000000000000284000
  0
ACAD_PROXY_OBJECT
  5
5F
102
{ACAD_REACTORS
330
47
102
}
330
47
100
AcDbProxyObject
 90
      499
 91
      503
 93
      249
310
90D332F313622203D2031272D3022000000000000320FC000000000000284000
  0
ACAD_PROXY_OBJECT
  5
60
102
{ACAD_REACTORS
330
47
102
}
330
47
100
AcDbProxyObject
 90
      499
 91
      503
 93
      241
310
90C312F3422203D2031272D3022000000000000340FC000000000000284000
  0
ACAD_PROXY_OBJECT
  5
61
102
{ACAD_REACTORS
330
47
102
}
330
47
100
AcDbProxyObject
 90
      499
 91
      503
 93
      241
310
90C332F3822203D2031272D3022000000000000360FC000000000000284000
  0
ACAD_PROXY_OBJECT
  5
62
102
{ACAD_REACTORS
330
47
102
}
330
47
100
AcDbProxyObject
 90
      499
 91
      503
 93
      241
310
90C312F3222203D2031272D3022000000000000380FC000000000000284000
  0
ACAD_PROXY_OBJECT
  5
63
102
{ACAD_REACTORS
330
47
102
}
330
47
100
AcDbProxyObject
 90
      499
 91
      503
 93
      241
310
90C332F3422203D2031272D30220000000000003A0FC000000000000284000
  0
ACAD_PROXY_OBJECT
  5
64
102
{ACAD_REACTORS
330
47
102
}
330
47
100
AcDbProxyObject
 90
      499
 91
      503
 93
      161
310
90A3122203D2031272D30224000000000000284000
  0
ACAD_PROXY_OBJECT
  5
65
102
{ACAD_REACTORS
330
47
102
}
330
47
100
AcDbProxyObject
 90
      499
 91
      503
 93
      257
310
90E312D312F3222203D2031272D30220000000000003E0FC000000000000284000
  0
ACAD_PROXY_OBJECT
  5
66
102
{ACAD_REACTORS
330
47
102
}
330
47
100
AcDbProxyObject
 90
      499
 91
      503
 93
      225
310
90A3322203D2031272D302200000000000002100000000000000284000
  0
ACAD_PROXY_OBJECT
  5
67
102
{ACAD_REACTORS
330
47
102
}
330
47
100
AcDbProxyObject
 90
      499
 91
      503
 93
      225
310
90A3622203D2031272D302200000000000006100000000000000284000
  0
ACAD_PROXY_OBJECT
  5
68
102
{ACAD_REACTORS
330
47
102
}
330
47
100
AcDbProxyObject
 90
      499
 91
      503
 93
      249
310
90D31272D3022203D2031272D30220000000000000A100000000000000284000
  0
ACAD_PROXY_OBJECT
  5
2F
102
{ACAD_REACTORS
330
2A
102
}
330
2A
100
AcDbProxyObject
 90
      499
 91
      501
 93
      436
310
42CC9915DA5C99599C985B595049028333333333333E33F0000000000000F90107901411070040501600405405064090741402480A0340
1001
ACAD
1000
AcDbSavedByObjectVersion
1070
     0
  0
ACAD_PROXY_OBJECT
  5
32
102
{ACAD_REACTORS
330
2A
102
}
330
2A
100
AcDbProxyObject
 90
      499
 91
      501
 93
      388
310
4150985CDA58D07406404333333333333E33F0000000000000F90107A41107004050150841D405064090741402480A0350
1001
ACAD
1000
AcDbSavedByObjectVersion
1070
     0
  0
ACAD_PROXY_OBJECT
  5
36
102
{ACAD_REACTORS
330
2A
102
}
330
2A
100
AcDbProxyObject
 90
      499
 91
      501
 93
      428
310
42109C9A59DA1D195B90C409028333333333333E33F0000000000000F9010790141107004050150841D405064090741402480A029950
1001
ACAD
1000
AcDbSavedByObjectVersion
1070
     0
  0
ACAD_PROXY_OBJECT
  5
3A
102
{ACAD_REACTORS
330
2A
102
}
330
2A
100
AcDbProxyObject
 90
      499
 91
      501
 93
      452
310
42D0DBDB1BDC90DA185B99D95104090240C333333333333E33F0000000000000F90108901411070040501508421405064090741402480A0350
1001
ACAD
1000
AcDbSavedByObjectVersion
1070
     0
  0
ACAD_PROXY_OBJECT
  5
34
102
{ACAD_REACTORS
330
2A
102
}
330
2A
100
AcDbProxyObject
 90
      499
 91
      501
 93
      500
310
4290DBDB98D95C1D1D585B10940D028333333333333E33F0000000000000F90107902409070040501000000000018199010841D405064090740C02480A0340
1001
ACAD
1000
AcDbSavedByObjectVersion
1070
     0
  0
ACAD_PROXY_OBJECT
  5
35
102
{ACAD_REACTORS
330
2A
102
}
330
2A
100
AcDbProxyObject
 90
      499
 91
      501
 93
      412
310
40D11A5B50B409028333333333333E33F0000000000000F9010790141107004050150841D405064090741402480A02677FFFFFD0
1001
ACAD
1000
AcDbSavedByObjectVersion
1070
     0
  0
ACAD_PROXY_OBJECT
  5
3D
102
{ACAD_REACTORS
330
2A
102
}
330
2A
100
AcDbProxyObject
 90
      499
 91
      501
 93
      452
310
43115919D950DBDB1BDC93D999916409028333333333333E33F0000000000000F9010790141107004050150841D405064090741402480A0350
1001
ACAD
1000
AcDbSavedByObjectVersion
1070
     0
  0
ACAD_PROXY_OBJECT
  5
39
102
{ACAD_REACTORS
330
2A
102
}
330
2A
100
AcDbProxyObject
 90
      499
 91
      501
 93
      444
310
42D19858D95C185D1D195C9B90F409028333333333333E33F0000000000000F9010790141107004050150841D405064090741402480A0350
1001
ACAD
1000
AcDbSavedByObjectVersion
1070
     0
  0
ACAD_PROXY_OBJECT
  5
2B
102
{ACAD_REACTORS
330
2A
102
}
330
2A
100
AcDbProxyObject
 90
      499
 91
      501
 93
      380
310
41119B185D240901404333333333333E33F0000000000000F9010740A907004050150841D405064090741402480A1B50
1001
ACAD
1000
AcDbSavedByObjectVersion
1070
     0
  0
ACAD_PROXY_OBJECT
  5
2C
102
{ACAD_REACTORS
330
2A
102
}
330
2A
100
AcDbProxyObject
 90
      499
 91
      501
 93
      468
310
43519B185D15DA5D1A115919D95CD0140901404333333333333E33F0000000000000F90107409019070040501600405405064090741402480A1B50
1001
ACAD
1000
AcDbSavedByObjectVersion
1070
     0
  0
ACAD_PROXY_OBJECT
  5
2D
102
{ACAD_REACTORS
330
2A
102
}
330
2A
100
AcDbProxyObject
 90
      499
 91
      501
 93
      404
310
41D1DBDD5C985D5910240902404333333333333E33F0000000000000F9010740A9070040501641D405064090741402480A1B50
1001
ACAD
1000
AcDbSavedByObjectVersion
1070
     0
  0
ACAD_PROXY_OBJECT
  5
2E
102
{ACAD_REACTORS
330
2A
102
}
330
2A
100
AcDbProxyObject
 90
      499
 91
      501
 93
      492
310
4411DBDD5C985D5915DA5D1A115919D95CD0340902404333333333333E33F0000000000000F90107409019070040501600405405064090741402480A1B50
1001
ACAD
1000
AcDbSavedByObjectVersion
1070
     0
  0
ACAD_PROXY_OBJECT
  5
31
102
{ACAD_REACTORS
330
2A
102
}
330
2A
100
AcDbProxyObject
 90
      499
 91
      501
 93
      476
310
41921A5919195B90640502408333333333333E33F0000000000000F901079024090700405020000000000001110200405405064090740C02480A0340
1001
ACAD
1000
AcDbSavedByObjectVersion
1070
     0
  0
ACAD_PROXY_OBJECT
  5
3B
102
{ACAD_REACTORS
330
2A
102
}
330
2A
100
AcDbProxyObject
 90
      499
 91
      501
 93
      428
310
42529A5D1D195C93D999914409028333333333333E33F0000000000000F9010790141107004050150A41D405064090741402480A0350
1001
ACAD
1000
AcDbSavedByObjectVersion
1070
     0
  0
ACAD_PROXY_OBJECT
  5
38
102
{ACAD_REACTORS
330
2A
102
}
330
2A
100
AcDbProxyObject
 90
      499
 91
      501
 93
      444
310
42D31A5B995C185D1D195C9B90E409028333333333333E33F0000000000000F9010790141107004050750841D405064090741402483A0350
1001
ACAD
1000
AcDbSavedByObjectVersion
1070
     0
  0
ACAD_PROXY_OBJECT
  5
3C
102
{ACAD_REACTORS
330
2A
102
}
330
2A
100
AcDbProxyObject
 90
      499
 91
      501
 93
      444
310
42D3DD995C9A185B99D3D999915409028333333333333E33F0000000000000F9010790141107004050150941D405064090741402480A0350
1001
ACAD
1000
AcDbSavedByObjectVersion
1070
     0
  0
ACAD_PROXY_OBJECT
  5
33
102
{ACAD_REACTORS
330
2A
102
}
330
2A
100
AcDbProxyObject
 90
      499
 91
      501
 93
      428
310
425499585B1A5CDD1A58D08409038333333333333E33F0000000000000F9010740A907004050150800405405064090740C02480A1B40
1001
ACAD
1000
AcDbSavedByObjectVersion
1070
     0
  0
ACAD_PROXY_OBJECT
  5
42
102
{ACAD_REACTORS
330
2A
102
}
330
2A
100
AcDbProxyObject
 90
      499
 91
      501
 93
      420
310
4194DA1859195911B40902404333333333333E33F0000000000000F9010740A41107004050150800405405064090840C02480A0B40
1001
ACAD
1000
AcDbSavedByObjectVersion
1070
     0
  0
ACAD_PROXY_OBJECT
  5
41
102
{ACAD_REACTORS
330
2A
102
}
330
2A
100
AcDbProxyObject
 90
      499
 91
      501
 93
      516
310
4454DA18591959081DDA5D1A08195919D95CD1A40902404333333333333E33F0000000000000F901074090142907004050250800405405064090740C02480A0B40
1001
ACAD
1000
AcDbSavedByObjectVersion
1070
     0
  0
ACAD_PROXY_OBJECT
  5
3E
102
{ACAD_REACTORS
330
2A
102
}
330
2A
100
AcDbProxyObject
 90
      499
 91
      501
 93
      532
310
4394DA1859195CC81BD98811DC985E5174090240C333333333333E33F0000000000000F901079024090741D01000000000000111010841D405064090740C02480A0340
1001
ACAD
1000
AcDbSavedByObjectVersion
1070
     0
  0
ACAD_PROXY_OBJECT
  5
3F
102
{ACAD_REACTORS
330
2A
102
}
330
2A
100
AcDbProxyObject
 90
      499
 91
      501
 93
      476
310
41D4DAD95D18DA1E51840502408333333333333E33F0000000000000F901079024090741D01000000000000111010B41D405064090741802480A0340
1001
ACAD
1000
AcDbSavedByObjectVersion
1070
     0
  0
ACAD_PROXY_OBJECT
  5
37
102
{ACAD_REACTORS
330
2A
102
}
330
2A
100
AcDbProxyObject
 90
      499
 91
      501
 93
      412
310
41D51A1A58DAD95B90D409028333333333333E33F0000000000000F9010790141107004050150C41D405064090741402480A0350
1001
ACAD
1000
AcDbSavedByObjectVersion
1070
     0
  0
ACAD_PROXY_OBJECT
  5
30
102
{ACAD_REACTORS
330
2A
102
}
330
2A
100
AcDbProxyObject
 90
      499
 91
      501
 93
      420
310
4255DA5C99599C985B595059028333333333333E33F0000000000000F90107901411070040501600405405064090740C02480A0340
1001
ACAD
1000
AcDbSavedByObjectVersion
1070
     0
  0
ACAD_PROXY_OBJECT
  5
40
102
{ACAD_REACTORS
330
2A
102
}
330
2A
100
AcDbProxyObject
 90
      499
 91
      501
 93
      404
310
41560B54985E51940902404000000000000E03F0000000000000F9010740501907004050150841D405064090740C02480A1B40
1001
ACAD
1000
AcDbSavedByObjectVersion
1070
     0
  0
XRECORD
  5
48C
102
{ACAD_REACTORS
330
483
102
}
330
483
100
AcDbXrecord
 90
        0
  0
XRECORD
  5
4A2
102
{ACAD_REACTORS
330
483
102
}
330
483
100
AcDbXrecord
1000
DSTYLE
1002
{
1070
   340
340
11
1002
}
  0
XRECORD
  5
48D
102
{ACAD_REACTORS
330
483
102
}
330
483
100
AcDbXrecord
  1
{88A62906-0590-426F-83A5-09BE59512490}
  0
XRECORD
  5
486
102
{ACAD_REACTORS
330
483
102
}
330
483
100
AcDbXrecord
  1

  0
XRECORD
  5
48B
102
{ACAD_REACTORS
330
483
102
}
330
483
100
AcDbXrecord
 90
        4
  0
XRECORD
  5
488
102
{ACAD_REACTORS
330
483
102
}
330
483
100
AcDbXrecord
340
1A
  0
XRECORD
  5
48A
102
{ACAD_REACTORS
330
483
102
}
330
483
100
AcDbXrecord
 90
    10781
  0
XRECORD
  5
489
102
{ACAD_REACTORS
330
483
102
}
330
483
100
AcDbXrecord
340
19
  0
XRECORD
  5
48F
102
{ACAD_REACTORS
330
483
102
}
330
483
100
AcDbXrecord
 40
0.0
  0
XRECORD
  5
492
102
{ACAD_REACTORS
330
483
102
}
330
483
100
AcDbXrecord
340
0
  0
XRECORD
  5
498
102
{ACAD_REACTORS
330
483
102
}
330
483
100
AcDbXrecord
 10
0.0
 20
0.0
 30
0.0
  0
XRECORD
  5
494
102
{ACAD_REACTORS
330
483
102
}
330
483
100
AcDbXrecord
 10
0.0
 20
0.0
 30
0.0
  0
XRECORD
  5
497
102
{ACAD_REACTORS
330
483
102
}
330
483
100
AcDbXrecord
 10
0.0
 20
0.0
 30
0.0
  0
XRECORD
  5
495
102
{ACAD_REACTORS
330
483
102
}
330
483
100
AcDbXrecord
 10
0.0
 20
0.0
 30
0.0
  0
XRECORD
  5
496
102
{ACAD_REACTORS
330
483
102
}
330
483
100
AcDbXrecord
 10
0.0
 20
0.0
 30
0.0
  0
XRECORD
  5
493
102
{ACAD_REACTORS
330
483
102
}
330
483
100
AcDbXrecord
 10
0.0
 20
0.0
 30
0.0
  0
XRECORD
  5
490
102
{ACAD_REACTORS
330
483
102
}
330
483
100
AcDbXrecord
340
0
  0
XRECORD
  5
491
102
{ACAD_REACTORS
330
483
102
}
330
483
100
AcDbXrecord
 70
     0
  0
XRECORD
  5
487
102
{ACAD_REACTORS
330
483
102
}
330
483
100
AcDbXrecord
  1

  0
XRECORD
  5
484
102
{ACAD_REACTORS
330
483
102
}
330
483
100
AcDbXrecord
 90
        1
  0
XRECORD
  5
485
102
{ACAD_REACTORS
330
483
102
}
330
483
100
AcDbXrecord
 90
       70
  0
XRECORD
  5
49B
102
{ACAD_REACTORS
330
483
102
}
330
483
100
AcDbXrecord
340
0
  0
XRECORD
  5
4A1
102
{ACAD_REACTORS
330
483
102
}
330
483
100
AcDbXrecord
 10
0.0
 20
0.0
 30
0.0
  0
XRECORD
  5
49D
102
{ACAD_REACTORS
330
483
102
}
330
483
100
AcDbXrecord
 10
0.0
 20
0.0
 30
0.0
  0
XRECORD
  5
4A0
102
{ACAD_REACTORS
330
483
102
}
330
483
100
AcDbXrecord
 10
0.0
 20
0.0
 30
0.0
  0
XRECORD
  5
49E
102
{ACAD_REACTORS
330
483
102
}
330
483
100
AcDbXrecord
 10
0.0
 20
0.0
 30
0.0
  0
XRECORD
  5
49F
102
{ACAD_REACTORS
330
483
102
}
330
483
100
AcDbXrecord
 10
0.0
 20
0.0
 30
0.0
  0
XRECORD
  5
49C
102
{ACAD_REACTORS
330
483
102
}
330
483
100
AcDbXrecord
 10
0.0
 20
0.0
 30
0.0
  0
XRECORD
  5
499
102
{ACAD_REACTORS
330
483
102
}
330
483
100
AcDbXrecord
340
0
  0
XRECORD
  5
49A
102
{ACAD_REACTORS
330
483
102
}
330
483
100
AcDbXrecord
 70
     0
  0
XRECORD
  5
48E
102
{ACAD_REACTORS
330
483
102
}
330
483
100
AcDbXrecord
  1
{FAEB1C32-E019-11D5-929B-00C0DF256EC4}
  0
DICTIONARYVAR
  5
4AC
102
{ACAD_REACTORS
330
4A3
102
}
330
4A3
100
DictionaryVariables
280
     0
  1
1:1
  0
DICTIONARYVAR
  5
4AA
102
{ACAD_REACTORS
330
4A3
102
}
330
4A3
100
DictionaryVariables
280
     0
  1
2
  0
DICTIONARYVAR
  5
4AB
102
{ACAD_REACTORS
330
4A3
102
}
330
4A3
100
DictionaryVariables
280
     0
  1
1
  0
DICTIONARYVAR
  5
4AD
102
{ACAD_REACTORS
330
4A3
102
}
330
4A3
100
DictionaryVariables
280
     0
  1
1
  0
DICTIONARYVAR
  5
4A7
102
{ACAD_REACTORS
330
4A3
102
}
330
4A3
100
DictionaryVariables
280
     0
  1
80.000000
  0
DICTIONARYVAR
  5
4A6
102
{ACAD_REACTORS
330
4A3
102
}
330
4A3
100
DictionaryVariables
280
     0
  1
5.000000
  0
DICTIONARY
  5
4B0
330
45
100
AcDbDictionary
280
     1
  3
ACAD_XREC_ROUNDTRIP
360
4B1
  0
DICTIONARY
  5
4AE
330
44
100
AcDbDictionary
280
     1
  3
ACAD_XREC_ROUNDTRIP
360
4AF
  0
DICTIONARY
  5
4B2
330
46
100
AcDbDictionary
280
     1
  3
ACAD_XREC_ROUNDTRIP
360
4B3
  0
XRECORD
  5
4B1
102
{ACAD_REACTORS
330
4B0
102
}
330
4B0
100
AcDbXrecord
102
MATERIAL
148
0.0
149
0.0
149
0.0
 93
        0
 94
      127
282
     0
 72
     1
 77
     1
171
     1
175
     1
179
     1
273
     0
  0
XRECORD
  5
4AF
102
{ACAD_REACTORS
330
4AE
102
}
330
4AE
100
AcDbXrecord
102
MATERIAL
148
0.0
149
0.0
149
0.0
 93
        0
 94
      127
282
     0
 72
     1
 77
     1
171
     1
175
     1
179
     1
273
     0
  0
XRECORD
  5
4B3
102
{ACAD_REACTORS
330
4B2
102
}
330
4B2
100
AcDbXrecord
102
MATERIAL
148
0.0
149
0.0
149
0.0
 93
        0
 94
      127
282
     0
 72
     1
 77
     1
171
     1
175
     1
179
     1
273
     0
  0
ENDSEC
  0
EOF
